Song name
# A B C D E F G H I J K L M N O P Q R S T U V W X Y Z

Gorillaz - Dare tab

___________________________________________________

e|----------------3----------------------------|
B|-11-10-8-10-8-3------------------------------|
G|---------------------------------------------|
D|---------------------------------------------|
A|---------------------------------------------|
E|---------------------------------------------|
You've got to press it on you
___________________________________________________

e|----------------3-5-------3-3-3------------------|
B|-11-10-8-10-8-3-----6-6-3-------3----------------|
G|-------------------------------------------------|
D|-------------------------------------------------|
A|-------------------------------------------------|
E|-------------------------------------------------|
You just think it
That's what you do, baby
Hold it down, DARE
___________________________________________________

e|----------------3----------------------------|
B|-11-10-8-10-8-3------------------------------|
G|---------------------------------------------|
D|---------------------------------------------|
A|---------------------------------------------|
E|---------------------------------------------|
Jump with them all and move it
___________________________________________________

e|----------------3-5-------3-3-3------------------|
B|-11-10-8-8-3-3------6-6-3-------3----------------|
G|-------------------------------------------------|
D|-------------------------------------------------|
A|-------------------------------------------------|
E|-------------------------------------------------|
Jump back and forth
And feel like you were dare yourself
Work it out
___________________________________________________

My First tab its nothing special
Tap to rate this tab
# A B C D E F G H I J K L M N O P Q R S T U V W X Y Z