Song name
# A B C D E F G H I J K L M N O P Q R S T U V W X Y Z

Gorillaz - 5 4 tab

Ok so i have looked at other tabs, and done some of it by ear, and this is pretty damn 
to the original.
~=ring
/=slide up or down frets
Intro/Verse riff: For this intro, i assume it is done acoustically, or on a clean sound.

e-----------------------------|
b-----------------------------|
g-----------------------------|
d------5-5--3-3-3--5-5--8-8-8-|
a------3-3--1-1-1--3-3--6-6-6-| Play this twice, then flip on distortion,
E-----------------------------| same as before.

If you DO NOT have distortion, then try this after the above.

e-----------------------------|
b-----------------------------|
g-----------------------------|
d-----------------------------|
a------5-5--3-3-3--5-5--8-8-8-|
E------3-3--1-1-1--3-3--6-6-6-|

For this next bit that sounds liek a synthesizer, i used a slider to get the 
sound, and these frets:
e---------------------------------------|
b---------------------------------------|
g-----3-3--5-5--6-6--5-5--3-3--5-5--6-6-|
d---------------------------------------|
a---------------------------------------|
E---------------------------------------|
Chorus (Totally improvising):
e----------------------------------------|
b----------------------------------------|
g----------------------------------------|
d----------------------------------------|
a------8(x8)-3(x8)-8(x8)-8-8/-12/-8-/8/8-|
E------7(x8)-1(x8)-7(x8)-7-7/-10/-7-/7/7-|

So that is basically the song. any questions email nzephier@yahoo.com
Tap to rate this tab
 
# A B C D E F G H I J K L M N O P Q R S T U V W X Y Z