Song name
# A B C D E F G H I J K L M N O P Q R S T U V W X Y Z

Gorillaz - Murdoc Is God tab

This tab sounds a lot more like the actual song. This song has heavy distortion. You can 
down the first E string to D and Tune the second A to G if you want.

Its starts off something like this, try to listen to the song to get the beat together.

E-------------------------|
B-------------------------|
G-------------------------|
D-------------------------|2x
A-------------------------|
E-000-7707-77-000-7700-00-|

E-------------|
B-------------|
G-------------|
D-------------| once
A-------------|
E-000-7707-77-|

Do each 16 times and then repeat in that order.

E------   ------   ------   ------|
B------   ------   ------   ------|
G------   ------   ------   ------|
D------x16------x16------x16------|x16  X2
A-2----   -5----   -7----   -9----|
E-0----   -3----   -5----   -7----|
(wait around 8 seconds)
E--------------------------------|
B--------------------------------|
G--------------------------------|
D--------------------------------| once
A--------------------------------|
E-000-7707-77-000-7700-00--------|

E------   ------   ------   ------|
B------   ------   ------   ------|
G------   ------   ------   ------|
D------x16------x16------x16------|x16  X2
A-2----   -5----   -7----   -9----|
E-0----   -3----   -5----   -7----|
(wait only 2 seconds)
(Play louder and heavier than before hand)
E------   ------   ------   ------|
B------   ------   ------   ------|
G------   ------   ------   ------|
D------x16------x16------x16------|x16  X2
A-2----   -5----   -7----   -9----|
E-0----   -3----   -5----   -7----|

Let ring, and then your done! Hope this was ok, if you need help, my e-mail is josho134@yahoo.com
Tap to rate this tab
# A B C D E F G H I J K L M N O P Q R S T U V W X Y Z