Song name
# A B C D E F G H I J K L M N O P Q R S T U V W X Y Z

Gorillaz - O Green World tab

So I wasnít really sure what the other tabs for the song were saying, since they
donít sound correct to me at all, and I decided to tab it for myself and found 
this works much better.


Now. For the 40 second intro, which to me is superfluous, it starts sort of like this, 
for those of you who might want it: (listen to it to figure out rhythm)

|--------------------------------------------------|
|--------------------------------------------------|
|-14/15--14/15--14/15--14-15--14-15--14-15--14-15--|
|--------------------------------------------------|
|--------------------------------------------------|
|--------------------------------------------------|
|--------------------------------------------------|

|----------15----------15----------15----------15--|
|--------------------------------------------------|
|-15-14-14----15-14-14----15-14-14----15-14-14-----|
|--------------------------------------------------|
|--------------------------------------------------|
|--------------------------------------------------|

Then the strings (or synthesized strings) go:

|-17p16--17p16--17p16--17p16--17--17--17--17-------|
|--------------------------------------------------|
|--------------------------------------------------|
|--------------------------------------------------|
|--------------------------------------------------|
|--------------------------------------------------|

Then (played down the octave) these notes lead you into the main song:

|----------------10----------------------10--------|
|-----------10-----10---------------10-----10------|
|--------------------------------------------------|
|------12-------------12-------12-------------12---|
|--------------------------------------------------|
|-10----------------------10-----------------------|

And that brings you into the main song. Now, you can play the chords as power chords,
as every seems to like doing, or you can play them normally. Iíll list both sets.


Power chords:

Dm: 10-12-12-x-x-x
Am: 5-7-7-x-x-x
G: 3-5-5-x-x-x
A: (same as Am)


Normal chords (all barred):

Dm: 10-12-12-10-10-10
Am: 5-7-7-5-5-5
G: 3-5-5-4-3-3
A: 5-7-7-6-5-5


Sequence (obviously):
Dm  Am  G  A


After a while, the keyboard begins mimicking the vocals, on a high octave, though,
so Iím bringing it down one:

|-10----10----10----10-----10-------10-12-10--------------------|
|----10----10----10----10--------10-----------13--10------------|
|-------------------------------------------------------9-10-12-|
|---------------------------------------------------------------|
|---------------------------------------------------------------|
|---------------------------------------------------------------|

|-----------------------------------10-12-10--9-----------------|
|-12----12----12----12-----12--------------------10-------------|
|----12----12----12----12--------12---------------------9-10-12-|
|---------------------------------------------------------------|
|---------------------------------------------------------------|
|---------------------------------------------------------------|



Repeat any given section as the song deems necessary.


Email me if you have questions/comments/concerns.
schm2213@umn.edu
Tap to rate this tab
# A B C D E F G H I J K L M N O P Q R S T U V W X Y Z