Song name
# A B C D E F G H I J K L M N O P Q R S T U V W X Y Z

Gorillaz - Hongkongaton tab

Super easy.

Am, like this, played throughout.

|--------------------------------------------------------|
|----13-----13-----13-----13-----13-----13---------------|
|----14-----14-----14-----14-----14-----14---------------|
|----14-----14-----14-----14-----14-----14---------------|
|-0-------------0-------------0-------------0------------|
|--------0-------------0-------------0-----------0--3----|


Sometimes like this: (with 2 open Es at end)
|--------------------------------------------------------|
|----13-----13-----13-----13-----13-----13---------------|
|----14-----14-----14-----14-----14-----14---------------|
|----14-----14-----14-----14-----14-----14---------------|
|-0-------------0-------------0-------------0------------|
|--------0-------------0-------------0----------0-0--3---|

Tap to rate this tab
# A B C D E F G H I J K L M N O P Q R S T U V W X Y Z