Song name
# A B C D E F G H I J K L M N O P Q R S T U V W X Y Z

Gorillaz - Stylo tab

There is no guitar in this song (it's all keyboards) but what the hell.  I couldn't be 
to write out the order, so do it yourselves.  :P


Riff No 1:
|---------------------------------------------|
|---------------------------------------------|
|---------------------------------------------|
|---------------------------------6--5--3--1--|
|--3--3-3---3--3-3---3--3-3-------------------|
|---------------------------------------------|

Riff No 2:
|---------------------------|
|---------------------------|
|----------3----------3-----|
|--5----3-----5----------5--|
|------------------3--------|
|---------------------------|

Note:  Riff 1 and Riff 2 are always played together. The only exception to this is right 
the beginning.

Riff No 3:

|----------------------------------------------|
|----------------------------------------------|
|----------------------------------------------|
|--3--3-3---3--3-3---3--3-3--------6--5--3--1--|
|----------------------------------------------|
|----------------------------------------------|

Riff No 4:
|-----------------------------------3--4--6--8--10--|
|--------------------------3--4--6------------------|
|--------------------3--5---------------------------|
|-----------3--5--6---------------------------------|
|--3--5--6------------------------------------------|
|---------------------------------------------------|
Tap to rate this tab
 
# A B C D E F G H I J K L M N O P Q R S T U V W X Y Z