Song name
# A B C D E F G H I J K L M N O P Q R S T U V W X Y Z

Gorillaz - To Binge tab

Gorillaz
Plastic Beach

To Binge

Intro

    D     G     D     Em       A7    A7     D      Gm     D      Gm

e-2/5---2/7---2/5---2-0---7/8/-9---7/-9---9-10---9/10---9-10---9/10-|
B-3/7---3/8---3/7---3-0---8/9/10---8/10--10-10--10/11--10-10--10/11-|
G-------------------------------------------------------------------|
D-------------------------------------------------------------------|
A-------------------------------------------------------------------|
E-------------------------------------------------------------------|

    D                           G
    Waiting by the mailbox, by the train

e-2/5-------------------------2/7-------|
B-3/7-------------------------3/8-------|
G---------------------------------------|
D---------------------------------------|
A---------------------------------------|
E---------------------------------------|

    D                           Em
    Passin' by the hills 'til I hear the name

e-2/5-------------------------2-0------|
B-3/7-------------------------3-0------|
G--------------------------------------|
D--------------------------------------|
A--------------------------------------|
E--------------------------------------|

       A7
   I'm looking for a saw to cut these chains in half and all I want is

e-7/8/-9---------------------------7/-9----------------------------|
B-8/9/10---------------------------8/10----------------------------|
G------------------------------------------------------------------|
D------------------------------------------------------------------|
A------------------------------------------------------------------|
E------------------------------------------------------------------|

     D                         Gm
     Someone to rely on as Thunder comes a rolling down
     Someone to rely on as Lightning comes a staring in again

e--9-10----------------------9/10----------------------------------|
B-10-10---------------------10/11----------------------------------|
G------------------------------------------------------------------|
D------------------------------------------------------------------|
A------------------------------------------------------------------|
E------------------------------------------------------------------|


     D
I'll wait to be forgiven
      G
Maybe I never will
   D
My star has left me
   Em
To take the bitter pill
  A7
That shattered feeling

Well the cause of it's a lesson learned
D                           Gm
Just don't know if I could roll into the sea again
D                           Gm
"Just don't know if I could do it all again" she said, it's true

Waiting in my room and I lock the door
I watch the coloured animals across the floor
And I'm looking from a distance
And I'm listening to the whispers
And oh it aint the same, when your falling out of feeling and your
Falling in and caught again

I'm caught again in the mystery
Your by my side, but are you still with me?
The answers somewhere deep in it, I'm sorry but your feeling it
But I just have to tell that I love you so much these days
Have to tell you that I love you so much these days, it's true
Have to tell you that I love you so much these days, it's true

D/G/D/Em/A7//

   D
My heart is in economy
  Gm
Due to this autonomy
 D                     Gm
Rolling in and caught again
D      G
Caught again

D/Em/A7//

   D
My heart is in economy
  Gm
Due to this autonomy
 D                     Gm
Rolling in and caught again
D      G
Caught again
Tap to rate this tab
# A B C D E F G H I J K L M N O P Q R S T U V W X Y Z