Song name
# A B C D E F G H I J K L M N O P Q R S T U V W X Y Z

Gorillaz - Orchestral tab

e|--------------------------0~----1~-------3~-5~----------|
B|--3--3--3--3--3--3--3--3--3--3--3--3--3--3--3--3--3--3--|
G|--3--3--3--3--3--3--3--3--3--3--3--3--3--3--3--3--3--3--|
D|--3--3--3--3--3--3--3--3--3--3--3--3--3--3--3--3--3--3--|
A|--------------------------------------------------------|
E|--------------------------------------------------------|

e|--0~----1~----3~----5~----------4~----2~----0~----------|
B|--3--3--3--3--2--2--2--2--3~----0--0--0--0--0--0--0--3~-|
G|--3--3--3--3--3--3--3--3--2--2--1--1--1--1--1--1--1--1--|
D|--3--3--3--3--3--3--3--3--3--3--2--2--2--2--2--2--2--2--|
A|--------------------------------------------------------|
E|--------------------------------------------------------|

e|--2~----------------------------------2--2--2--2--2--...
B|--------4~----------------------------4--4--4--4--4--...
G|--4--4--4--4~-2~----2~-3~-4~-4--4--4--4--4--4--4--4--...
D|--4--4--4--4--4--4--4--2--4--4--4--4--4--4--4--4--4--...
A|--2--2--2--2--2--2--2--4--2--2--2--2--2--2--2--2--2--...
E|-----------------------------------------------------...
Tap to rate this tab
 
# A B C D E F G H I J K L M N O P Q R S T U V W X Y Z