Song name
# A B C D E F G H I J K L M N O P Q R S T U V W X Y Z

Gorillaz - Re-hash tab

Re-Hash from the album Gorillaz.

x...Dead Note
~...Vibrato

Verse Pt. 1
-----------------------------|
-----------------------------|
-----------------------------|
--7-7xx55-xxxx77-xx-5--55-6--|
--7-7xx55-xxxx77-xx-5--55-6--|
--5-5xx33-xxxx55-xx-3--33-4--|


Verse Pt. 2
------------------------|
------------------------|
-------6666-777---------|
--4444-6666-777-7---77--|
--4444-4444-555-7---77--|
--2222----------5---55--|


Chorus
Not sure of the whole thing but its all started (and filled) with:
-------4~--|
-----6-----|
--5--------|
-----------|
-----------|
-----------|


I'm not gonna put the order, because it's simple to hear.


Lyrics
  --
It's a sweet sensation
Over the dub
I want a situation
But don't wanna stop
It's the drugs for sober
Over the dub
With the sweetest inspiration
We don't wanna stop

Cause it's money or stop
It's the money or stop (Yeah, Yeah)

It's a sweet sensation
Over the dub
I wanna situation
But don't want to stop
It's the drugs for sober
Over the dub
With the sweetest inspiration
We don't wanna stop

Cause it's money or stop
It's the money or stop (Yeah, Yeah)
Tap to rate this tab
 
# A B C D E F G H I J K L M N O P Q R S T U V W X Y Z