Song name
# A B C D E F G H I J K L M N O P Q R S T U V W X Y Z

Gorillaz - O Green World tab

-----------------------------------------------------------------
O Green World- Gorillaz
-----------------------------------------------------------------
Tabbed by: DgorillazguyH
Email: almostashuvit@yahoo.com
Tuning: E A D G B e
 
(Intro)
E|---------------------------------------------------------------|
B|---------------------------------------------------------------|
G|--14b15----14b15-----14b15-------------------------------------|
D|---------------------------------------------------------------|
A|---------------------------------------------------------------|
E|---------------------------------------------------------------|

E|---------------------------------------------------------------|
B|-----------11------------11--------------11--------------------|
G|--14b15--------14b15----------14b15----------------------------|
D|---------------------------------------------------------------|
A|---------------------------------------------------------------|
E|---------------------------------------------------------------|

E|---------------------------------------------------------------|
B|------------11--------------11--------------11-----------------|
G|---14b15---------14b15-----------14b15-------------------------|
D|---------------------------------------------------------------|
A|---------------------------------------------------------------|
E|---------------------------------------------------------------|

E|----------16----------------------16---------------------------|
B|--------------16----------------------16-----------------------|
G|---14-15----------------14-15----------------------------------|
D|---------------------------------------------------------------|
A|---------------------------------------------------------------|
E|---------------------------------------------------------------|

E|----------16-----------------------16--------------------------|
B|---------------16-----------------------16---------------------|
G|---14-15----------------14-15----------------------------------|
D|---------------------------------------------------------------|
A|---------------------------------------------------------------|
E|---------------------------------------------------------------|

E|----------16-----------------------16--------------------------|
B|---------------16-----------------------16---------------------|
G|---14-15----------------14-15----------------------------------|
D|---------------------------------------------------------------|
A|---------------------------------------------------------------|
E|---------------------------------------------------------------|

(Verse Synth) 
E|--------------------17-------22------17------------------------|
B|----------15-----------------------------------15--------------|
G|---------------------------------------------------------------|
D|---12---------------------------------------------------12-----|
A|---------------------------------------------------------------|
E|---------------------------------------------------------------|

(Verse Guitar)
E|---------------------------------------------------------------|
B|---------------------------------------------------------------|
G|---------------------------------------------------------------|
D|---7-7-x-x-7-7-x-x-7-7-x-x-7-7-5-7-1010-x-x-1010-x-x-1010-x-x--|
A|---5-5-x-x-5-5-x-x-5-5-x-x-5-5-3-5-8-8--x-x-8-8--x-x-8-8--x-x--|
E|---------------------------------------------------------------|

E|---------------------------------------------------------------|
B|---------------------------------------------------------------|
G|---------------------------------------------------------------|
D|--1010-7-10-12-12-x-x-12-12-x-x-12-12-x-x-12-12-1012-----------|
A|--8-8--5-8--10-10-x-x-10-10-x-x-10-10-x-x-10-10-8-10-----------|
E|---------------------------------------------------------------|

E|---------------------------------------------------------------|
B|---------------------------------------------------------------|
G|---------------------------------------------------------------|
D|-14-14-14-14-14-14-14-14\--2-2-2-2-5-5-5-5---------------------|
A|-12-12-12-12-12-12-12-12\--0-0-0-0-3-3-3-3---------------------|
E|---------------------------------------------------------------|

(Synthesizer Vocal Melody)

E|---10----------10----------10-----------10----------10---------|
B|---------10----------10-----------10-----------10--------------|
G|---------------------------------------------------------------|
D|---------------------------------------------------------------|
A|---------------------------------------------------------------|
E|---------------------------------------------------------------|

E|---10-12-10----------------------------------------------------|
B|---------------13-10~------------------------------------------|
G|--------------------------9-10-12------------------------------|
D|---------------------------------------------------------------|
A|---------------------------------------------------------------|
E|---------------------------------------------------------------|

E|---------------------------------------------------------------|
B|---12---------12---------12----------12-----------12-----------|
G|---------12---------12----------12----------12-----------------|
D|---------------------------------------------------------------|
A|---------------------------------------------------------------|
E|---------------------------------------------------------------|

E|---------------------------------------------------------------|
B|--15-17-15--14-------------------------------------------------|
G|----------------14~--------------------------------------------|
D|---------------------------------------------------------------|
A|---------------------------------------------------------------|
E|---------------------------------------------------------------|
Sounds Right To Me
Tap to rate this tab
# A B C D E F G H I J K L M N O P Q R S T U V W X Y Z