Song name
# A B C D E F G H I J K L M N O P Q R S T U V W X Y Z

Gorillaz - Re-hash tab

-----------------------------------------------------------------
Re-Hash - Gorillaz
-----------------------------------------------------------------
Tabbed by: DgorillazguyH
Email: almostashuvit@yahoo.com
Tuning: E A D G B e

(Verse Riff 1)
E|-------------------------------------------------------|
B|-------------------------------------------------------|
G|--6-6---4-4-4----6-6-6---4-4-4-5-----------------------|
D|--7-7---5-5-5----7-7-7---5-5-5-6-----------------------|
A|--7-7---5-5-5----7-7-7---5-5-5-6-----------------------|
E|--5-5---3-3-3----5-5-5---3-3-3-4-----------------------|

(Verse Riff 2)
E|-------------------------------------------------------|
B|-------------------------------------------------------|
G|--6--6---9-9-9---7-7----6--6-6-------------------------|
D|--7--7---9-9-9---7-7----7--7-7-------------------------|
A|--7--7---7-7-7---5-5----7--7-7-------------------------|
E|--5--5---0-0-0----------5--5-5-------------------------|
(I want a situation, dont wanna stop)
And Thats Pretty Much It :D
Tap to rate this tab
# A B C D E F G H I J K L M N O P Q R S T U V W X Y Z