Song name
# A B C D E F G H I J K L M N O P Q R S T U V W X Y Z

Gorillaz - Ghost Train tab

-----------------------------------------------------------------
Ghost Train- Gorillaz
-----------------------------------------------------------------
Tabbed by: DgorillazguyH
Email: almostashuvit@yahoo.com
Tuning: E A D G B e

Guitar Starts at 3:12
(Riff 1) (W/moderate distortion)
E|------------------------------------------------------|
B|------------------------------------------------------|
G|----9-9-9-9-9-9-9-9-9-9-9-9-9-9\----------------------|
D|----9-9-9-9-9-9-9-9-9-9-9-9-9-9\----------------------|
A|--x-7-7-7-7-7-7-7-7-7-7-7-7-7-7\----------------------|
E|------------------------------------------------------|

E|------------------------------------------------------|
B|------------------------------------------------------|
G|----9-9----9-9---9-9----9-9-9\------------------------|
D|----9-9----9-9---9-9----9-9-9\------------------------|
A|--x-7-7-x--7-7-x-7-7--x-7-7-7\------------------------|
E|------------------------------------------------------|

E|------------------------------------------------------|
B|------------------------------------------------------|
G|----9---------------------9---9---9---9-9\------------|
D|----9---------------------9---9---9---9-9\------------|
A|--x-7-x-x-x-x--xxxxxx-x-x-7-x-7-x-7-x-7-7\------------|
E|------------------------------------------------------|

(Riff 2) (W/ heavy distortion)
E|------------------------------------------------------|
B|------------------------------------------------------|
G|------------------------------------------------------|
D|--7/9-9-9-9-9/12-12-12-12-12-12-12-12\----------------|
A|--7/9-9-9-9-9/12-12-12-12-12-12-12-12\----------------|
E|--5/7-7-7-7-7/10-10-10-10-10-10-10-10\----------------|
(Come On, Come On, Come On)

E|------------------------------------------------------|
B|------------------------------------------------------|
G|------------------------------------------------------|   
D|--7/9-9-9-9-9/16-16-15-15-14-14-14-14-----------------|
A|--7/9-9-9-9-9/16-16-15-15-14-14-14-14-----------------|
E|--5/7-7-7-7-7/14-14-13-13-12-12-12-12-----------------|
(Repeat Riff 2 Until Song Ends)
Might Not Be 100% Correct, But Its Sure As Hell Close
Its A Very Easy Song To Play, Feel Free To Correct It.
Tap to rate this tab
 
# A B C D E F G H I J K L M N O P Q R S T U V W X Y Z