Song name
# A B C D E F G H I J K L M N O P Q R S T U V W X Y Z

Gorillaz - Spitting Out The Demons tab

-----------------------------------------------------------------
Spitting Out The Demons- Gorillaz
-----------------------------------------------------------------
Tabbed by: DgorillazguyH
Email: almostashuvit@yahoo.com
Tuning: D A D G B e

Remember To Tune The Bottom E String Down A Whole Step.

Verse Guitar
E|--(10)---9h10-10-x-10----9h10-10-x-10--------------------------|
B|--(10)---9h10-10-x-10----9h10-10-x-10--------------------------|
G|--(10)---9h10-10-x-10----9h10-10-x-10--------------------------|
D|---------------------------------------------------------------|
A|---------------------------------------------------------------|
E|---------------------------------------------------------------|

E|--9h10-10-x-10----8----8---8-----------------------------------|
B|--9h10-10-x-10----10---10--10----------------------------------|
G|--9h10-10-x-10----9----9---9-----------------------------------|
D|---------------------------------------------------------------|
A|---------------------------------------------------------------|
E|---------------------------------------------------------------|

Verse Bass 1
E|---------------------------------------------------------------|
B|---------------------------------------------------------------|
G|---------------------------------------------------------------|
D|---------------------------------------------------------------|
A|---3-5-5-5-3-0--5----------------------------------------------|
E|---------------------------------------------------------------|

E|---------------------------------------------------------------|
B|---------------------------------------------------------------|
G|---------------------------------------------------------------|
D|-------------3-------------------------------------------------|
A|--0-1~----------3-4--------------------------------------------|
E|---------------------------------------------------------------|

Verse Bass 2
E|---------------------------------------------------------------|
B|---------------------------------------------------------------|
G|--7-7-7-5-7----------------------------------------------------|
D|--------------7------------------------------------------------|
A|------------------5--------5-3-0--5-3-0--5---------------------|
E|---------------------------------------------------------------|

Verse Bass 3
E|---------------------------------------------------------------|
B|---------------------------------------------------------------|
G|---------------------------------------------------------------|
D|---------------------------------------------------------------|
A|--0-0---------0----------0-0---------0-3-----------------------|
E|-------5-3-5-----0------------5-3-5----------------------------|

E|---------------------------------------------------------------|
B|---------------------------------------------------------------|
G|---------------------------------------------------------------|
D|---------------------------------------------------------------|
A|--0-0---------0----------0-0---------0-3----5/7\5-0------------|
E|-------5-3-5-----0------------5-3-5----------------------------|

That Covers Everything, Hope You Find This Tab Correct, Please Rate and Comment, And 
Free To Correct Me. Peace.
Tap to rate this tab
# A B C D E F G H I J K L M N O P Q R S T U V W X Y Z