Song name
# A B C D E F G H I J K L M N O P Q R S T U V W X Y Z

Gorillaz - 5 4 tab

5/4 by Gorillaz

e-------------------------------|
B-------------------------------|
G-5-5---8-8-8---5-5---10-10-10--|
D-3-5---6-6-6---3-3----8--8-8---|
A-------------------------------|
E-------------------------------|

That is the basis of the song.


After the lyrics stop with the She turned my dad on
Play the section bellow.

e-------------------------------|
B-------------------------------|
G-5-5---8-8-8---5-5---10-10-10--|
D-5-5---8-8-8---5-5---10-10-10--| X3
A-------------------------------|
E-------------------------------|

And finally on the 4th time playing the above Albarn has used a synth add the last notes 
get a similar sound.

e---------------------------------------------------------|
B--------------------------------------6-6-6---------9-9-9|
G-5-5---8-8-8---5-5---10-10-10---5-5---5-5-5---5-5---5-5-5|
D-5-5---8-8-8---5-5---10-10-10---5-5---5-5-5---5-5---5-5-5|
A---------------------------------------------------------|
E---------------------------------------------------------|
Tap to rate this tab
# A B C D E F G H I J K L M N O P Q R S T U V W X Y Z