Song name
# A B C D E F G H I J K L M N O P Q R S T U V W X Y Z

Gorillaz - Glitter Freeze tab

It’s my first tab, so please be nice if you’ll rate it :D
I’m Brazilian, sorry if my English is bad :)

e|--17--17--17--17--17--17--17--17--17--17--17--17--17--17--17--17--17|
B|--------------------------------------------------------------------|
G|--------------------------------------------------------------------| 
D|--------------------------------------------------------------------|
A|--------------------------------------------------------------------|
E|--------------------------------------------------------------------|
I don’t know how many times to play that part, just listen to the music :P then play:

e|--------------------------------------------------------------------|
B|--------------------------------------------------------------------|
G|---5----5----5----5----5----5----5----5----5----5-------------------|2x 
D|--------------------------------------------------------------------|
A|--------------------------------------------------------------------|
E|--------------------------------------------------------------------|

e|--------------------------------------------------------------------|
B|--------------------------------------------------------------------|
G|--------------------------------------------------------------------| 
D|--3--3--3--3--3--3--3--3--3--3---1--1--1--1--1---3--3--3--3--3------|
A|--------------------------------------------------------------------|
E|--------------------------------------------------------------------|

e|--------------------------------------------------------------------|
B|--------------------------------------------------------------------|
G|------------------4--4--4--4--4-------------------------------------| 
D|--5--5--5--5--5-------------------1--1--1--1--1--1--1--1--1--1------|
A|--------------------------------------------------------------------|
E|--------------------------------------------------------------------|

e|--------------------------------------------------------------------|
B|--------------------------------------------------------------------|
G|-----------------------------------2--3--4--5--5--5--5--5--5--5--5--| 
D|--3--3--3--3--3--3--3--3--3--3--5-----------------------------------|
A|--------------------------------------------------------------------|
E|--------------------------------------------------------------------|


e|--------------------------------------------------------------------|
B|--------------------------------------------------------------------|
G|--5--5--5--5-----------------3--3--3--3--3--3--3--3--3--4-----------| 
D|--------------3--3--3--3--3-----------------------------------------|
A|--------------------------------------------------------------------|
E|--------------------------------------------------------------------|

that crazy sound starts here (00:48)

e|--------------------------------------------------------------------|
B|--------------------------------------------------------------------|
G|---5----5----5----5----5----5----5----5----5----5-------------------|2x 
D|--------------------------------------------------------------------|
A|--------------------------------------------------------------------|
E|--------------------------------------------------------------------|

e|--------------------------------------------------------------------|
B|--------------------------------------------------------------------|
G|--------------------------------------------------------------------| 
D|--3--3--3--3--3--3--3--3--3--3---1--1--1--1--1--3--3--3--3--3-------|
A|--------------------------------------------------------------------|
E|--------------------------------------------------------------------|


e|--------------------------------------------------------------------|
B|--------------------------------------------------------------------|
G|-----------------4--4--4--4--4--------------------------------------|
D|--5--5--5--5--5-----------------1--1--1--1--1--1--1--1--1--1--------|
A|--------------------------------------------------------------------|
E|--------------------------------------------------------------------|

e|--------------------------------------------------------------------|
B|--------------------------------------------------------------------|
G|--------------------------------------------------------------------| 
D|--3--3--3--3--3--3--3--3--3--3--------------------------------------|
A|--------------------------------------------------------------------|
E|--------------------------------------------------------------------|	


e|--------------------------------------------------------------------|
B|--------------------------------------------------------------------|
G|--5--5--5--5--5--5--5--5--5--5--5--5--------------------------------| 
D|---------------------------------------3--3--3--3--3----------------|
A|--------------------------------------------------------------------|
E|--------------------------------------------------------------------|


e|--------------------------------------------------------------------|
B|--------------------------------------------------------------------|
G|--3--3--3--3--3--3--3--3--3--4--5-----------------------------------| 
D|--------------------------------------------------------------------|
A|--------------------------------------------------------------------|
E|--------------------------------------------------------------------|

Pause (it was… the glitter freeze…)
Repeat the part of the crazy sounds, and from 3:05, play until the end:


e|--------------------------------------------------------------------|
B|--------------------------------------------------------------------|
G|---5----5----5----5----5----5----5----5----5----5----5----5----5----|
D|--------------------------------------------------------------------|
A|--------------------------------------------------------------------|
E|--------------------------------------------------------------------|

The “crazy sounds” are too treble, I could not do it on the guitar
Tap to rate this tab
# A B C D E F G H I J K L M N O P Q R S T U V W X Y Z