Song name
# A B C D E F G H I J K L M N O P Q R S T U V W X Y Z

Gorillaz - Dracula tab

Ok im new at this but this is fairly accurate except the sax part is a little off i 
so if its wrong forgive me. My first tab!

e|------12--15--12--10--14--10--12--15--15--12--10--10--14--14--12--10---------|
B|-----------------------------------------------------------------------------|
G|-----------------------------------------------------------------------------|
D|-----------------------------------------------------------------------------|
A|-----------------------------------------------------------------------------|
E|-----------------------------------------------------------------------------|

e|------12--15--12--10--14--10--12--15--15--12--10--10--14--14--12--10---------|
B|-----------------------------------------------------------------------------|
G|-----------------------------------------------------------------------------|
D|-----------------------------------------------------------------------------|
A|-----------------------------------------------------------------------------|
E|-----------------------------------------------------------------------------|

e|------5--5--5--5--5--3--5--5--5--5--5--7--5--5--5--5--5--3--5--5--5--3--3--|
B|---------------------------------------------------------------------------|
G|---------------------------------------------------------------------------|
D|---------------------------------------------------------------------------|
A|---------------------------------------------------------------------------|
E|---------------------------------------------------------------------------|

e|------3--5-------------------------------------------------------------------|
B|-----------------------------------------------------------------------------|
G|-----------------------------------------------------------------------------|
D|-----------------------------------------------------------------------------|
A|-----------------------------------------------------------------------------|
E|-----------------------------------------------------------------------------|

(The percentage of us tow the line The rest of us out of reach Everybody party time Some 
us will never sleep again)

e|------12--15--12--10--14--10--12--15--15--12--10--10--14--14--12--10---------|
B|-----------------------------------------------------------------------------|
G|-----------------------------------------------------------------------------|
D|-----------------------------------------------------------------------------|
A|-----------------------------------------------------------------------------|
E|-----------------------------------------------------------------------------|
       Dracula---  Dracula---  Dracula-----------------------------------------|

e|------12--15--12--10--14--10--12--15--15--12--10--10--14--14--12--10---------|
B|-----------------------------------------------------------------------------|
G|-----------------------------------------------------------------------------|
D|-----------------------------------------------------------------------------|
A|-----------------------------------------------------------------------------|
E|-----------------------------------------------------------------------------|
And thats all i know! \m/(^o^)\m/
Tap to rate this tab
 
# A B C D E F G H I J K L M N O P Q R S T U V W X Y Z