Song name
# A B C D E F G H I J K L M N O P Q R S T U V W X Y Z

Gorillaz - White Flag tab

****************************************************************************

                          Gorillaz - White Flag

****************************************************************************

Tabbed in standard - EADGBe

This is a tab of some of the arabian instruments in the opening of white flag,

Firstly a wind instrument (0.08);

[------------------|-----------------|-------------------|---------10------|
[----------10--12--|-13----------12--|-13------12-13-12--|-------------10--|
[------------------|---------12------|-------------------|-12--10----------|
[------------------|-----------------|-------------------|-----------------|
[------------------|-----------------|-------------------|-----------------|
[------------------|-----------------|-------------------|-----------------|

|------------------|-----10--12--10--|------------------|------------------|
|-8--------10--12--|-13--------------|--13--12--10------|-------------10---|
|------------------|-----------------|--------------12--|-10--9-10-12------|
|------------------|-----------------|------------------|------------------|
|------------------|-----------------|------------------|------------------|
|------------------|-----------------|------------------|------------------|

|-10--13--12-------|
|------------------|
|------------------|
|------------------|
|------------------|
|------------------|

Then Strings come in (0.28);

|------------10--------------------------|----------------------10---------|
|-13-12-13-12--13-12-----------10-12--12-|-13----13-10-12-12/13---13-12-10-|
|-------------------12-10-12-10-----12---|-----12--------------------------|
|----------------------------------------|---------------------------------|
|----------------------------------------|---------------------------------|
|----------------------------------------|---------------------------------|

|-----------------10--10-/8-12-/10-|---------15-------------------10--|
|------12-10-13-12--13-------------|-----15------15---12-/10--13------|
|-12-10----------------------------|-12-------------------------------|
|----------------------------------|----------------------------------|
|----------------------------------|----------------------------------|
|----------------------------------|----------------------------------|

|-8/10/8-10/12/10-12/13/12-10/12/10-|---------------------------------------|
|-----------------------------------|-13-12-10--12-10-----10----------------|
|-----------------------------------|---------12-----12-10--12-10-9-12-10-9-|
|-----------------------------------|-------------------------------------12|
|-----------------------------------|---------------------------------------|
|-----------------------------------|---------------------------------------|
         these are two 16th notes, not a chord, a struggle to fit them in ^^

|---------------------------------|-10-10-10-13-13-13-12-12-12-10-10-10-|
|----------------------10--12--13-|-------------------------------------|
|--10-9-------9--10--12-----------|-------------------------------------|
|-------12-10---------------------|-------------------------------------|
|---------------------------------|-------------------------------------|
|---------------------------------|-------------------------------------|

At this piont(0.47) the key changes to a Cm, and these higher strings come in;
           ^.                 ^.        .                   .    .   .  ^.
|[---------15---------16-18-|-20----------------------|-----------------20-|
|[--13-15--------18-20------|-----21-20-18--20--20-18-|--21-20---21--20----|
|[.-------------------------|-------------------------|--------------------|
|[.-------------------------|-------------------------|--------------------|
|[--------------------------|-------------------------|--------------------|
|[--------------------------|-------------------------|--------------------|

[1.______________________][2.______________________
  ^.  ^.  .          .
|-19--22-----------------]|-10-10-10-13-13-13-12-12-12-10-10-10-|
|---------20--20-18--17--]|-------------------------------------|
|-----------------------.]|-------------------------------------|
|-----------------------.]|-------------------------------------|
|------------------------]|-------------------------------------|
|------------------------]|-------------------------------------|

And thats the end of the intro
Tap to rate this tab
 
# A B C D E F G H I J K L M N O P Q R S T U V W X Y Z