Song name
# A B C D E F G H I J K L M N O P Q R S T U V W X Y Z

Gorillaz - Feel Good Inc tab

Feel Good Inc
Gorillaz
Demon Days
---------------------------------------------------------------
Standard tuning (E,A,D,G,B,E)
---------------------------------------------------------------

Intro + Verse

-|--------------------------------|
-|--------------------------------|
-|--------------------------------|
-|--------------------------------|
-|---------3-2-0----0-0-3-2-------|
-|-0-0-2-3------------------3-2-0-|
This goes on untill the drumming stops and the chorus begins

Chorus

Em                Bm
Windmill windmill for the land
Am           Bm
Turn forever hand in hand
Em                Bm
Take it all there on your stride
Am            Bm
It is tinkin, falling down
Em                Bm
Windmill windmill for the land
Am             Bm
Is everybody in

Verse

-|--------------------------------|
-|--------------------------------|
-|--------------------------------|
-|--------------------------------|
-|---------3-2-0----0-0-3-2-------|
-|-0-0-2-3------------------3-2-0-|
This goes on until the chorus starts again

Chorus

Em                 Bm
Windmill windmill for the land
Am           Bm
Turn forever hand in hand
Em                Bm
Take it all there on your stride
Am             Bm
It is tinking falling down
Em           Bm
Love forever love is free
Am                 Bm
Let's turn forever you and me
Em                 Bm
Windmill windmill for the land
Am             Bm
Is everybody in

Verse

-|--------------------------------|
-|--------------------------------|
-|--------------------------------|
-|--------------------------------|
-|---------3-2-0----0-0-3-2-------|
-|-0-0-2-3------------------3-2-0-|
This goes on until the end of the song
Tap to rate this tab
 
# A B C D E F G H I J K L M N O P Q R S T U V W X Y Z