Song name
# A B C D E F G H I J K L M N O P Q R S T U V W X Y Z

Gorillaz - 12d3 tab

Guitar (Repeat for whole song):

e---------------------------------------------------------------------|
B------------3-------------------------------3------------------------|
G------------2---0-------0-------0-----------2---0-------0-------0----|
D----0---0---0---0---2---0---3---0---0---0---0---0---2---0---3---0----|
A----x---x---x-----------------------x---x---x------------------------|
E----2---2---2-----------------------2---2---2------------------------|

e---------------------------------------------------------------------|
B------------3-------------------------------3------------------------|
G------------2---0-------0-------0-----------2---0-------0-------0----|
D----0---0---0---0---2---0---3---0---0-0-0---0---0---2---0---3---0----|
A----x---x---x-----------------------x-x-x---x------------------------|
E----2---2---2-----------------------2-2-2---2------------------------|

Piano:

e--------2---2---2---0-2-3-------2-------2---2---2---0-2-3-------2----|
B--------3---3---3---2-3-5-------3-------3---3---3---2-3-5-------3----|
G---------------------------------------------------------------------|
D---------------------------------------------------------------------|
A---------------------------------------------------------------------|
E---------------------------------------------------------------------|

e--------2---2---2---0-2-3-------2---2-0------------------------------|
B--------3---3---3---2-3-5-------3-------3---0-----------0---2-3------|
G----------------------------------------------------2----------------|
D---------------------------------------------------------------------|
A---------------------------------------------------------------------|
E---------------------------------------------------------------------|
Tap to rate this tab
# A B C D E F G H I J K L M N O P Q R S T U V W X Y Z