Gorillaz - On Melancholy Hill tab

The entire song is one riff, played by the synth. It's a brilliant song though. Enjooooy!



1)   -           -           -           -           -          -
2) Up... plastic tree.   Are... me?                 Just lookin out on...
3) Well you... get me.  So... and see.              Cause you are... close
4) me.        -              -             -             -              -
5) So call... well go.  Does... know?               If were lookin out on...
6)    -             -           -            -            -            -
7)                                                  If you... want the you
8) Up... hill           sits a manatee.             Just lookin out on...
9) me.        -              -             -             -           -
10) me.      -             -             -             -           -
11)           -             -             -             -           -
|-----------------------------------------------------------------------------|
|-----------------------------------------------------------------------------|
|---2------2---2-----2-----2---2---2------2---2---2-----2-------2-----2---2---|
|--0------0---0---0-----------------------------------------------------------|
|-------------------4-----4---4---2------2---2---2---2-2-----2-4----4---4---4-|
|-----------------------------------------------------------------------------|

1) -           -           -
2)dream.
3)to me.     When... close to
4) -           -             -
5)dream.
6) -           -             -
7)with me.
8)to me.     When... close to
9) -         When... close to
10) -          -             -
11) -          -             -
-------------------------|
-------------------------|
-------2---------2---2---|
-------------------------|
-----2-------2-4---4---4-|
-------------------------|Then repeat several bajillion times....

Little endy chord thingy:
Dm
|--1--|
|--3--|
|--2--|
|-----|
|-----|
|-----|
Tap to rate this tab
 
# A B C D E F G H I J K L M N O P Q R S T U V W X Y Z