Song name
# A B C D E F G H I J K L M N O P Q R S T U V W X Y Z

Gorillaz - Stylo tab

There's quite a few other Stylo tabs on UG, but I decided there should be one with a 
more alto pitch to accompany the more low-pitched ones to be played together. I've included 
the essential parts of the song in 3 riffs:

Intro                                  Chorus
|-------------------------4-3-----|    |-------------------44-3----|
|-1--1-1--1--1-1--1--1-1------6-4-|    |-4-66--4-66--4-66------6-4-|
|---------------------------------|X11 |---------------------------|X5
|---------------------------------|    |---------------------------|
|---------------------------------|    |---------------------------|
|---------------------------------|    |---------------------------|

Bridge
|-------3--------3----|
|-5---3----5-------5--|
|--------------3------|
|---------------------|
|---------------------|
|---------------------|

Hope this sounds good to you! If it doesn't, please contact me and complain about how 
much this sucks. Improvement ideas are better, though. :3
Tap to rate this tab
 
# A B C D E F G H I J K L M N O P Q R S T U V W X Y Z