Gorillaz - Starshine tab

This is an arrangement from an esxisting tab 

daft 1989 ver. easier to play

E|-------------------------------|
B|-------------------------------|
G|-------------------------------|
D|-----------------0-------------| <- First part
A|--------9------9------------4-0|
E|7-7-7-7----7-7------3-3-3-3----|

E|----------------------------------------|
B|----------------------------------------|
G|----------------------------------------|
D|-------------------0--------------------| <- Final Part
A|--------9------9-7------------4------4-0|
E|7-7-7-7----7-7--------3-3-3-3----3-3----|



original by Pushimi tab - Jaime Z.

E|-------------------------------|
B|-------------------------------|
G|-------------------------------|
D|-------------------------------| <- First part
A|--------9------9-5----------4--|
E|7-7-7-7----7-7------3-3-3-3---5|

E|----------------------------------------|
B|----------------------------------------|
G|----------------------------------------|
D|----------------------------------------| <- Final Part
A|--------9------9-7-5----------4------4--|
E|7-7-7-7----7-7--------3-3-3-3----3-3---5|
Tap to rate this tab
 
# A B C D E F G H I J K L M N O P Q R S T U V W X Y Z