Gorillaz - Revolving Doors tab

Revolving Doors - Gorillaz

Intro/Verse

E|---6---6---6---6---6-6---6---6-----6-|
B|-9---7-----------7-----6---------6---|
G|---------8---8-------------6---6-----|
D|-------------------------------------|
A|-------------------------------------|
E|-------------------------------------|

Repeated a couple of times throughout the song.

This can also be played with a capo on the 6th fret.

E|---0---0---0---0---0-0---0---0-----0-|
B|-3---1-----------1-----0---------0---|
G|---------2---2-------------0---0-----|
D|-------------------------------------|
A|-------------------------------------|
E|-------------------------------------|
Tap to rate this tab
 
# A B C D E F G H I J K L M N O P Q R S T U V W X Y Z