Song name
# A B C D E F G H I J K L M N O P Q R S T U V W X Y Z

Gorillaz - Revolving Doors tab

-------------------------------------------------------------------------------
			    Revolving Doors  - Gorillaz
-------------------------------------------------------------------------------
Tabbed by: Dimention
Email: biofrank@mac.com

Tuning: standard

Verse and intro:

e|--------------5---------5-----------5-------5--------------5-------5----5-|
B|---------8----------6--------------------------------8----------5---------|
G|-------------------------------7-------7-----------------------------5----|
D|--------------------------------------------------------------------------|
A|--------------------------------------------------------------------------|
E|--------------------------------------------------------------------------|

Chorus:
e|-----8-------5-------6--------5-------8-----5-------6------5--------------|
B|----10-------6-------8--------6------10-----6-------8------6--------------|
G|----9--------5-------7-------5-------9------5-------7------5--------------|
D|--------------------------------------------------------------------------|
A|--------------------------------------------------------------------------|
E|--------------------------------------------------------------------------|

Play the F's (XXX565) fast.

That's is.
Tap to rate this tab
 
# A B C D E F G H I J K L M N O P Q R S T U V W X Y Z