Song name
# A B C D E F G H I J K L M N O P Q R S T U V W X Y Z

Gorillaz - Rhinestone Eyes tab

-------------------------------------------------------------------------------
			     RHINESTONE EYES - Gorillaz
-------------------------------------------------------------------------------
Tabbed by: ironmanben
Email: bentrooper@gmail.com

Tuning: e B G D A E

This is only what the acoustic guitar in Rhinestone Eyes plays, as opposed
to all the synths.  It's very mixed down, but it's still there and you can
hear it.  I miss the days when Gorillaz' guitars were prominent in their
music.

guitar 1 - Cyborg Noodle - acoustic rhythm

riff 1:
e|---------------------------------|
B|---------------------------------|
G|---------------------------------|
D|---------------------------------|
A|---------------------------------|
E|-6-------------6-6---------------|
   1   &   2   &   3   &   4   &

e|---------------------------------|
B|---------------------------------|
G|---------------------------------|
D|---------------------------------|
A|---------------------------------|
E|-6-------------6-6---------------|
   1   &   2   &   3   &   4   &

e|---------------------------------|
B|---------------------------------|
G|---------------------------------|
D|---------------------------------|
A|---------------------------------|
E|-6-------------6-6---------------|
   1   &   2   &   3   &   4   &

e|---------------------------------|
B|---------------------------------|
G|---------------------------------|
D|---------------------------------|
A|---------------------------------|
E|-6-------------6-6---6---6-------|
   1   &   2   &   3   &   4   &



main riff:
e|---------------------------------|
B|-------------------------6-------|
G|-6---6-------6---6---5---6---6---|
D|-8---8-------8---8---6---8---8---|
A|---------------------------------|
E|---------------------------------|
   1   &   2   &   3   &   4   &

e|---------------------------------|
B|-------------------------6-------|
G|-6---6-------6---6---5---6---6---|
D|-8---8-------8---8---6---8---8---|
A|---------------------------------|
E|---------------------------------|
   1   &   2   &   3   &   4   &

e|---------------------------------|
B|-------------------------6-------|
G|-6---6-------6---6---5---6---6---|
D|-8---8-------8---8---6---8---8---|
A|---------------------------------|
E|---------------------------------|
   1   &   2   &   3   &   4   &

e|---------------------------------|
B|---------------------6-----------|
G|-6---6---------6-5---6---8---6---|
D|-8---8---------8-6-------10--8---|
A|---------------------------------|
E|---------------------------------|
   1   &   2   &   3   &   4   &



ORDER:
riff 1 
main riff x4
riff 1 x2
main riff x4
riff 1 x2
main riff x2


************************************

| /   slide up
| \   slide down
| h   hammer-on
| p   pull-off
| ~   vibrato
| +   harmonic
| x   Mute note
| b   Bend
| pb  Pre-bend
| br  Bend release
| pbr Pre-bend release
| brb Bend release bend

************************************
Tap to rate this tab
 
# A B C D E F G H I J K L M N O P Q R S T U V W X Y Z