Gorillaz - Rhinestone Eyes tab

-------------------------------------------------------------------------------
			     Rhinestone Eyes - Gorillaz
-------------------------------------------------------------------------------
Intro Drums [0:00-0:10]
(All notes attacked sharply, staccato)
e-----------------------------------------------------------------------|
B-----------------------------------------------------------------------|
G------------10------------10-----------10-----------10-----------------|
D--8--8-8-11-----8--8-8-11-----8--8-8-11-----8--8-8-8-------------------|
A-----------------------------------------------------------------------|
E-----------------------------------------------------------------------|


Verse Pt. I [0:10-0:31]
(Played softly)
I'm a scary gargoyle on a tower/That you made with plastic power/
e-----------------------------------------------------------------------|
B-----------------------------------------------------------------------|
G--10-------8-6-8-6--------------10-----8-6-8-6-------------------------|
D-----8--8--------------------------8-8---------------------------------|
A-----------------------------------------------------------------------|
E-----------------------------------------------------------------------|

Your rhinestone eyes are like/factories far away
e-----------------------------------------------------------------------|
B-----------------------------------------------------------------------|
G--10------8-6-8-6------------10----8---8-------------------------------|
D-----8--8--------------------------------------------------------------|
A-----------------------------------------------------------------------|
E-----------------------------------------------------------------------|

When the paralytic dreams that we all seem to keep/ Drive on engines till they weep
e-----------------------------------------------------------------------|
B-----------------------------------------------------------------------|
G--10-------8-6-8-6--------------10-----8-6-8-6-------------------------|
D-----8--8--------------------------8-8---------------------------------|
A-----------------------------------------------------------------------|
E-----------------------------------------------------------------------|
With future pixels in/ factories far away
e-----------------------------------------------------------------------|
B-----------------------------------------------------------------------|
G--10------8-6-8-6-----10----8---8--------------------------------------|
D-----8--8--------------------------------------------------------------|
A-----------------------------------------------------------------------|
E-----------------------------------------------------------------------|

Verse Pt. II [0:31-0:51]
(Pt. I played again in background)
So call the mainland from the beach / Your heart is now washed up in bleach
e--------------------------------------------------------------------------|
B----11----11----------------------------11---11---------------------------|
G--10----10---10--10-------------------10---10---10--10--------------------|
D---------------8---8-------------------------------8---8------------------|
A--------------------------------------------------------------------------|
E--------------------------------------------------------------------------|

The waves are rising 			for this time of year
e--------------------------------------------------------------------------|
B----11----11----------------------------11---11---------------------------|
G--10----10---10--10-------------------10---10---10--10--------------------|
D---------------8---8-------------------------------8---8------------------|
A--------------------------------------------------------------------------|
E--------------------------------------------------------------------------|

And nobody knows what to do with the heat / Under sunshine pylons we'll meet while
e--------------------------------------------------------------------------|
B----11----11--------------------------------11---11-----------------------|
G--10----10---10--10-----------------------10---10---10--10----------------|
D---------------8---8-----------------------------------8---8--------------|
A--------------------------------------------------------------------------|
E--------------------------------------------------------------------------|

rain is falling like 			rhinestones from the sky
e--------------------------------------------------------------------------|
B----11----11----------------------------11---11---------------------------|
G--10----10---10--10-------------------10---10---10--10--------------------|
D---------------8---8-------------------------------8---8------------------|
A--------------------------------------------------------------------------|
E--------------------------------------------------------------------------|

Chorus Pt. I [0:51-1:13]
e------------------------------------------------------------------------------------------|
B------------------------------------------------------------------------------------------|
G--11-11-11-11p10----------11-11-11-11p10------------8-8-8-8-------------8-8-8-------------|
D-----------------8-8-11------------------8-8-11-------------11-8-8-11---------11-8-8-11---|
A------------------------------------------------------------------------------------------|
E------------------------------------------------------------------------------------------|

e------------------------------------------------------------------------------------------|
B------------------------------------------------------------------------------------------|
G--11-11-11-11p10----------11-11-11-11p10------------8-8-8-8-------------8-8-8-------------|
D-----------------8-8-11------------------8-8-11-------------11-8-8-11---------11-8-8-11---|
A------------------------------------------------------------------------------------------|
E------------------------------------------------------------------------------------------|


Chorus Pt. II [1:13-1:53]
(Notes followed by ~ are held longer)
I got a feeling now my heart is frozen All the phoses and growsin Happy and after native 
in my soul
e----------------------------------------------------------------------|
B----------------------------------------------------------------------|
G---8p6~--8-8p6~-8--8p6~-8-10~--8~-------------------------------------|
D----------------------------------------------------------------------|
A----------------------------------------------------------------------|
E----------------------------------------------------------------------|

I prayed on the unmovable Yeah clinging to the adam's of rock Seasons seas just smooth 
Signs are change
e----------------------------------------------------------------------|
B----------------------------------------------------------------------|
G---8p6~--8-8p6~-8--8p6~-8-10~--8~-------------------------------------|
D----------------------------------------------------------------------|
A----------------------------------------------------------------------|
E----------------------------------------------------------------------|

I cant see now she said taxi I that light is so I can take Storm bring strange 
loyalties, and skies
e----------------------------------------------------------------------|
B----------------------------------------------------------------------|
G---8p6~--8-8p6~-8--8p6~-8-10~--8~-------------------------------------|
D----------------------------------------------------------------------|
A----------------------------------------------------------------------|
E----------------------------------------------------------------------|

I'm a scary gargoyle on a tower That you made with plastic power Your rhinestone eyes 
are like factories far away
e----------------------------------------------------------------------|
B----------------------------------------------------------------------|
G---8p6~--8-8p6~-8--8p6~-8-10~--8~-------------------------------------|
D----------------------------------------------------------------------|
A----------------------------------------------------------------------|
E----------------------------------------------------------------------|

Chorus Repetition [1:53-2:35]
e------------------------------------------------------------------------------------------|
B------------------------------------------------------------------------------------------|
G--11-11-11-11p10----------11-11-11-11p10------------8-8-8-8-------------8-8-8-------------|
D-----------------8-8-11------------------8-8-11-------------11-8-8-11---------11-8-8-11---|
A------------------------------------------------------------------------------------------|
E------------------------------------------------------------------------------------------|

e------------------------------------------------------------------------------------------|
B------------------------------------------------------------------------------------------|
G--11-11-11-11p10----------11-11-11-11p10------------8-8-8-8-------------8-8-8-------------|
D-----------------8-8-11------------------8-8-11-------------11-8-8-11---------11-8-8-11---|
A------------------------------------------------------------------------------------------|
E------------------------------------------------------------------------------------------|

Helicopters fly over the beach Same time everyday same routine Clear target in the 
summer when skies are blue
e----------------------------------------------------------------------|
B----------------------------------------------------------------------|
G---8p6~--8-8p6~-8--8p6~-8-10~--8~-------------------------------------|
D----------------------------------------------------------------------|
A----------------------------------------------------------------------|
E----------------------------------------------------------------------|

Its part of the noise when winter comes. It reverberates in my lungs. Natures' corrupted 
in factories far away
e----------------------------------------------------------------------|
B----------------------------------------------------------------------|
G---8p6~--8-8p6~-8--8p6~-8-10~--8~-------------------------------------|
D----------------------------------------------------------------------|
A----------------------------------------------------------------------|
E----------------------------------------------------------------------|


Outro (More Choruses) [2:35-3:20]
					Your loves' like rhinestones, falling from the sky
e------------------------------------------------------------------------------------------|
B------------------------------------------------------------------------------------------|
G--11-11-11-11p10----------11-11-11-11p10------------8-8-8-8-------------8-8-8-------------|
D-----------------8-8-11------------------8-8-11-------------11-8-8-11---------11-8-8-11---|
A------------------------------------------------------------------------------------------|
R------------------------------------------------------------------------------------------|

						With future pixels in factories far away
e------------------------------------------------------------------------------------------|
B------------------------------------------------------------------------------------------|
G--11-11-11-11p10----------11-11-11-11p10------------8-8-8-8-------------8-8-8-------------|
D-----------------8-8-11------------------8-8-11-------------11-8-8-11---------11-8-8-11---|
A------------------------------------------------------------------------------------------|
E------------------------------------------------------------------------------------------|

					Your loves' like rhinestones, falling from the sky
e------------------------------------------------------------------------------------------|
B------------------------------------------------------------------------------------------|
G--11-11-11-11p10----------11-11-11-11p10------------8-8-8-8-------------8-8-8-------------|
D-----------------8-8-11------------------8-8-11-------------11-8-8-11---------11-8-8-11---|
A------------------------------------------------------------------------------------------|
E------------------------------------------------------------------------------------------|

						With future pixels in factories far away
e------------------------------------------------------------------------------------------|
B------------------------------------------------------------------------------------------|
G--11-11-11-11p10----------11-11-11-11p10------------8-8-8-8-------------8-8-8-------------|
D-----------------8-8-11------------------8-8-11-------------11-8-8-11---------11-8-8-11---|
A------------------------------------------------------------------------------------------|
E------------------------------------------------------------------------------------------|

(Abrupt stop on last note)
Tap to rate this tab
 
# A B C D E F G H I J K L M N O P Q R S T U V W X Y Z