Song name
# A B C D E F G H I J K L M N O P Q R S T U V W X Y Z

Gorillaz - 5 4 tab

e|---------------------------------------------|
B|---------------------------------------------|
G|---------10-10-10-10-----------8-8-8-8-------|
D|-10-10---10-10-10-10---10-10---8-8-8-8-------|
A|-10-10---8--8--8--8----10-10---6-6-6-6-------|
E|-8--8------------------8--8------------------|

it's a bit in this direction, you need to figure the speed and moment out yourself but I 
see a lot of tabs going :
e|---------------------------------------------|
B|---------------------------------------------|
G|---------10-10-10-10-----------8-8-8-8-------|
D|-10-10---10-10-10-10---8--8----8-8-8-8-------|
A|-10-10---8--8--8--8----8--8----6-6-6-6-------|
E|-8--8------------------6--6------------------|

but that isn't correct, if you listen to the song, the first guitar go's back to the
10
10
8

good luck and much fun playing to you all!
Tap to rate this tab
 
# A B C D E F G H I J K L M N O P Q R S T U V W X Y Z