Song name
# A B C D E F G H I J K L M N O P Q R S T U V W X Y Z

Gorillaz - M1a1 tab

ok this is my first tab. So if you dont like it forget you.

Tuning: regular

intro:
E----------------------------------------------]
B----------------------------------------------]
G----------------------------------------------](repeat multiple times)
D----------------------------------------------]
A----------------------------------------------]
E-----------------3--5(x30)---0--1(x30)--------]

Verse:
E-----------------------]
B-----------------------]
G-----------------------](repeat)
D-----------------------]
A----7-7-10----7-7-5----]
E----5-5-8-----5-5-3----]

Solo:
E--5-5-5-5-7-7-7-7-8-8-8-8-10-10-10-10-12-12-12-12-]
B--------------------------------------------------]
G--------------------------------------------------]
D--------------------------------------------------]
A--------------------------------------------------]
E--------------------------------------------------]

E-13-13-13-13-15-15-15-15-17/19\17---]
B------------------------------------]
G------------------------------------]
D------------------------------------](x2)
A------------------------------------]
E------------------------------------]

and that's it.
Tap to rate this tab
# A B C D E F G H I J K L M N O P Q R S T U V W X Y Z