Song name
# A B C D E F G H I J K L M N O P Q R S T U V W X Y Z

Gorillaz - Punk tab

Gorillaz    -    Punk

A very easy and cool song

Verse:
e|----------------------------------|
B|----------------------------------|
G|-9-9-9-9-7-7-7-9------------------|
D|-9-9-9-9-7-7-7-9------------------|
A|-7-7-7-7-5-5-5-7------------------|
E|----------------------------------|

e|----------------------------------|
B|----------------------------------|
G|-9-9-9-9-7-7-7-5------------------|
D|-9-9-9-9-7-7-7-5------------------|
A|-7-7-7-7-5-5-5-3------------------|
E|----------------------------------|

Chorus:
e|-----------------|
B|-----------------|
G|-8-8-8-8-9-9-9-9-|
D|-8-8-8-8-9-9-9-9-|
A|-6-6-6-6-7-7-7-7-|
E|-----------------|


That's all, sugestions, corrections or anything else, mail-me at b182_aliens@hotmail.com
Tap to rate this tab
 
# A B C D E F G H I J K L M N O P Q R S T U V W X Y Z