Song name
# A B C D E F G H I J K L M N O P Q R S T U V W X Y Z

Gorillaz - On Melancholy Hill tab

-----------------------------------------------------------------------------
ON MELANCHOLY HILL - Gorillaz
-----------------------------------------------------------------------------
Tabbed by: SALKIN94
Email: niklas2012@hotmail.com

Tuning: Standard


e|--5----5--5-----5----5----5---5----5--5-----5-----5---5----5-----5---5----|
B|3----3--3---3-2-----2--22---3----3--3---3-3---3-2---3---3-2--3-2---3---2--|
G|--------------------------------------------------------------------------|
D|--------------------------------------------------------------------------|
A|--------------------------------------------------------------------------|
E|--------------------------------------------------------------------------|

Up on melancholy hill, there's a plastic tree.
Are you here with me?
Just looking out on the day, of another dream

Well you can't get what you want, but you can get me.
So let's set up and see,
'Cause you are my medicine, when you're close to me.
When you're close to me.


e|--5----5--5-----5----5----5---5----5--5-----5-----5---5----5-----5---5----|
B|3----3--3---3-2-----2--22---3----3--3---3-3---3-2---3---3-2--3-2---3---2--|
G|--------------------------------------------------------------------------|
D|--------------------------------------------------------------------------|
A|--------------------------------------------------------------------------|
E|--------------------------------------------------------------------------|


So call in the submarine, 'round the world we'll go.
Does anybody know?
If we're looking out on the day of another dream?


e|--5----5--5-----5----5----5---5----5--5-----5-----5---5----5-----5---5----|
B|3----3--3---3-2-----2--22---3----3--3---3-3---3-2---3---3-2--3-2---3---2--|
G|--------------------------------------------------------------------------|
D|--------------------------------------------------------------------------|
A|--------------------------------------------------------------------------|
E|--------------------------------------------------------------------------|

If you can't get what you want, then you come with me

Up on melancholy hill, sits a manatee.
Just looking out on the day, when you're close to me.
When you're close to me


e|--5----5--5-----5----5----5---5----5--5-----5-----5---5----5-----5---5----|
B|3----3--3---3-2-----2--22---3----3--3---3-3---3-2---3---3-2--3-2---3---2--|
G|--------------------------------------------------------------------------|
D|--------------------------------------------------------------------------|
A|--------------------------------------------------------------------------|
E|--------------------------------------------------------------------------|



When you're close to me


e|--5----5--5-----5----5----5---5----5--5-----5-----5---5----5-----5---5----|
B|3----3--3---3-2-----2--22---3----3--3---3-3---3-2---3---3-2--3-2---3---2--|
G|--------------------------------------------------------------------------|
D|--------------------------------------------------------------------------|
A|--------------------------------------------------------------------------|
E|--------------------------------------------------------------------------|
                                     X2

Tap to rate this tab
# A B C D E F G H I J K L M N O P Q R S T U V W X Y Z