Song name
# A B C D E F G H I J K L M N O P Q R S T U V W X Y Z

Gorillaz - 12d3 tab

Acoustic steel guitar, standard tuning
throughout the whole song

-----------------------------------------------|
-----3~~~--------------------3~~~--------------|
-2-2-2-------------------2-2-2-----------------|
-0-0---0-2-0-3-0---------0-0---0-2-0-3-0-------|
-0-0---------------------0-0-------------------|
-2-2---------------------2-2-------------------|

Piano solo

e-14-14-14--13-14-16---14-----14-14-14--13-14-16---14--------|
B-14-14-14--14-14-14---14-----14-14-14--14-14-14---14--------|
G------------------------------------------------------------|
D------------------------------------------------------------|
A------------------------------------------------------------|
E------------------------------------------------------------|

e-14-14-14--13-14-16---14--14-14-13---------------13-14------|
B-14-14-14--14-14-14---14--14-14-14--16-14-----14------------|
G--------------------------------------------16--------------|
D------------------------------------------------------------|
A------------------------------------------------------------|
E------------------------------------------------------------|


hope is good enough...
Tap to rate this tab
# A B C D E F G H I J K L M N O P Q R S T U V W X Y Z