Song name
# A B C D E F G H I J K L M N O P Q R S T U V W X Y Z

Gorillaz - Kids With Guns tab


In the second Verse:
e----------------------------|
B----------------------------|
G------0-----0-9-9-0-5-5-5-0-|
D--9-9-0-5-5-0-9-9-0-5-5-5-0-|
A--9-9-0-5-5-0-7-7-0-3-3-3-0-|
E--7-7---3-3-----------------|



Pre-Chorus:
e----------------------------|
B----------------------------|
G----------------------------|
D--9-9-9---------------------| 2x
A--9-9-9---------------------|
E--7-7-7---------------------|



Chorus:
e-------------------------------------|
B-------------------------------------|
G--7--------6--------4--------7-------|
D----9---9----7---7----6---6----7---7-|
A------9--------7--------7--------9---|
E-------------------------------------|



After second Chorus:
e----------------------------|
B--12--12-x-x-12--12-12------|
G----------------------------|
D----------------------------| with rythm guitar from 2 Verse 
A----------------------------|
E----------------------------|

e--16-16-16-14-14-14\12------|
B----------------------------|
G----------------------------|
D----------------------------| 
A----------------------------|
E----------------------------|



Outro:
e--19-19-17--15--14----------|
B----------------------------|
G----------------------------|
D----------------------------| with guitar from Chorus 
A----------------------------|
E----------------------------|


Please Rate ;)
Tap to rate this tab
 
# A B C D E F G H I J K L M N O P Q R S T U V W X Y Z