Song name
# A B C D E F G H I J K L M N O P Q R S T U V W X Y Z

Gorillaz - The Swagga tab

The Swagga - Gorillaz
D-Sides

This is my first tab so please leave feedback, whether excruciatingly negative or
insanely kind. If this is too complicated, try strumming the chords in the sound of the song.
It still sounds pretty cool! I like to divide the song into 2 parts because I think it 
makes memorization easier. Thanks for reading, enjoy!

Part 1
      A
E|-----------------|
B|---2-2-2-2-------|
G|----2---2-2------| (x12)
D|--2---2----------|
A|-----------------|
E|-----------------|

The rest are only repeated once

      Dm
E|---1--1-1-1-5----|
B|----3----3-------|
G|--2----2---------|
D|-----------------|
A|-----------------|
E|-----------------|
      F
E|-----------------|
B|---1-1-1-1-------|
G|----2---2-2------|
D|--3---3----------|
A|-----------------|
E|-----------------|
      G
E|---3--3-3-3------|
B|----3----3-3-----|
G|--0----0---------|
D|-----------------|
A|-----------------|
E|-----------------|
      Bb
E|-----------------|
B|---3-3-3-3-------|
G|----3---3-3------|
D|--3---3----------|
A|-----------------|
E|-----------------|
      Am
E|-----------------|
B|---1-1-1-1-------|
G|----2---2-2------|
D|--2---2----------|
A|-----------------|
E|-----------------|
      Bb
E|-----------------|
B|---3-3-3-3-------|
G|----3---3-3------|
D|--3---3----------|
A|-----------------|
E|-----------------|

Part 2: Here things get extended and the final fret in the Dm is changed

      A
E|-----------------|
B|---2-2-2-2-------|
G|----2---2-2------| (x4)
D|--2---2----------|
A|-----------------|
E|-----------------|
      Dm
E|---1--1-1-1------|
B|----3----3-3-----|
G|--2----2---------|
D|-----------------|
A|-----------------|
E|-----------------|
      F
E|-----------------|
B|---1-1-1-1-------|
G|----2---2-2------|
D|--3---3----------|
A|-----------------|
E|-----------------|
      G
E|---3--3-3-3------|
B|----3----3-3-----|
G|--0----0---------|
D|-----------------|
A|-----------------|
E|-----------------|
      Bb
E|-----------------|
B|---3-3-3-3-------|
G|----3---3-3------|
D|--3---3----------|
A|-----------------|
E|-----------------|
      Dm
E|---1--1-1-1------|
B|----3----3-3-----|
G|--2----2---------|
D|-----------------|
A|-----------------|
E|-----------------|
      F
E|-----------------|
B|---1-1-1-1-------|
G|----2---2-2------|
D|--3---3----------|
A|-----------------|
E|-----------------|
      G
E|---3--3-3-3------|
B|----3----3-3-----|
G|--0----0---------|
D|-----------------|
A|-----------------|
E|-----------------|
      Bb
E|-----------------|
B|---3-3-3-3-------|
G|----3---3-3------|
D|--3---3----------|
A|-----------------|
E|-----------------|
      Am
E|-----------------|
B|---1-1-1-1-------|
G|----2---2-2------|
D|--2---2----------|
A|-----------------|
E|-----------------|
      Bb
E|-----------------|
B|---3-3-3-3-------|
G|----3---3-3------|
D|--3---3----------|
A|-----------------|
E|-----------------|
      A
E|-----------------|
B|---2-2-2-2-------|
G|----2---2-2------| (x4)
D|--2---2----------|
A|-----------------|
E|-----------------|

The rest is just the first part ending with A until song fades out. Have fun!
Tap to rate this tab
# A B C D E F G H I J K L M N O P Q R S T U V W X Y Z