Song name
# A B C D E F G H I J K L M N O P Q R S T U V W X Y Z

Gorillaz - Hillbilly Man tab

-------------------------------------------------------------------------------
                             SONG NAME - Band Name
-------------------------------------------------------------------------------
Tabbed by: Dominic Ashwell
E-mail: Youminic@gmail.com

Tuning:

e|--------------------------------------------------------------------------------|
B|------------------------10---8---7---5------------------------------------------|
G|--7-- 7-- 7-9---7--9------------------------------------------------------------|
D|--------------------------------------------------------------------------------|
A|--7-- 7-- 7-7---7--7------------------------------------------------------------|
E|--------------------------------------------------------------------------------|

e|-------------------------------------------------------------------------------|
B|------------------------10---7---10---7--10------------------------------------|
G|--7-- 7-- 7-9---7--9-----------------------------------------------------------|
D|-------------------------------------------------------------------------------|
A|--7-- 7-- 7-7---7--7-----------------------------------------------------------|
E|-------------------------------------------------------------------------------|

Thought id give this a go so comment and enjoy rate and stuff :)
Tap to rate this tab
 
# A B C D E F G H I J K L M N O P Q R S T U V W X Y Z