Guitaretab - guitar tabs
Song name
# A B C D E F G H I J K L M N O P Q R S T U V W X Y Z

Gorillaz - Feel Good Inc tab

#----------------------------------PLEASE NOTE--------------------------------#
#This file is the author's own work and represents their interpretation of the#
#song. You may only use this file for private study, scholarship, or research.#
#-----------------------------------------------------------------------------#
#-- File created with Instab - http://www.pconline.com/~smcarey/instab.html --#
#-----------------------------------------------------------------------------#

Author/Artist: Gorillaz
Title: Feel Good Inc.
Transcribed by: Saverain
d strum down
u strum up
/ slide up
\ slide down
m mute

Bass Arranged For Guitar

D tuning (D A D G B e)
-|----------------------------------------------------------------------------|
-|----------------------------------------------------------------------------|
-|----------------------------------------------------------------------------|
-|----------------------------------------------------------------------------|
-|----------------------------------------------------------------------------|
-|-1--1-3-4--9-8-----6--6-9-8--4-1-----1--1-3-4--9-8-----6--6-9-8--4-1--/13---|
  Intro Bass Arr. Guitar

-----------------------------------------------------------------------|------|
-----------------------------------------------------------------------|------|
-----------------------------------------------------------------------|------|
-----------------------------------------------------------------------|------|
-----------------------------------------------------------------------|------|
-1--1-3-4--9-8-----6--6-9-8--4-1------1--1-3-4--9-8-----6--6-9-8--4-1--|------|


--------|---------------------------------------|-----------------------------|
--------|---------------------------------------|-----------------------------|
--------|---------------------------------------|-----------------------------|
--------|---------------------------------------|-----------------------------|
--------|---------------------------------------|-----------------------------|
--------|-1--1-3-4--9-8-----6--6-9-8--4-1--/13--|-----------------------------|
  Verse Arr. Guitar

--------|-11----11---------9----9-----7---7-------------|---------------------|
--------|----11----11--------11---11----7---------------|---------------------|
--------|----------11-----------------------8--8/10-\8--|---------------------|
--------|-----------------------------------------------|---------------------|
--------|-----------------------------------------------|---------------------|
--------|-----------------------------------------------|---------------------|
  G2 Verse/Intro
[ Tab from: http://www.guitaretab.com/g/gorillaz/58457.html ]
--------|--------------------|------------------------------------------------|
--------|--------------------|------------------------------------------------|
--------|--------------------|------------------------------------------------|
--------|--------------------|------------------------------------------------|
--------|-6-4----------------|------------------------------------------------|
--------|-----8-6-1-1--1--1--|------------------------------------------------|
  Pre Chorus Arr. Guitar

--------|-11-----------------|------------------------------------------------|
--------|--------------------|------------------------------------------------|
--------|--------------------|------------------------------------------------|
--------|--------------------|------------------------------------------------|
--------|--------------------|------------------------------------------------|
--------|--------------------|------------------------------------------------|
  G2 Pre Chorus

--------|-6-6-6--------6-6-6--------4-4-4--------6-6-6--------|---------------|
--------|-7-7-7--7--7--6-6-6--6--6--4-4-4--4--4--6-6-6--6--6--|---------------|
--------|-8-8-8--8--8--6-6-6--6--6--4-4-4--4--4--6-6-6--6--6--|---------------|
--------|-8-8-8--8--8--8-8-8--8--8--6-6-6--6--6--8-8-8--8--8--|---------------|
--------|-6-6-6--6--6--8-8-8--8--8--6-6-6--6--6--8-8-8--8--8--|---------------|
--------|-----------------------------------------------------|---------------|
  G1  Chorus/Bridge    u d um um um

-6--4---|-6--4-6--4--6--4--6--4--6--4--6--4--6--4--6--4-----|-----------------|
------7-|-----------------------------------------------7---|-----------------|
--------|---------------------------------------------------|-----------------|
--------|---------------------------------------------------|-----------------|
--------|---------------------------------------------------|-----------------|
--------|---------------------------------------------------|-----------------|
  G2 Chorus 2nd time

--------|-6-6-6--------6-6-6-----------|--------------------------------------|
--------|-6-6-6--6--6--6-6-6--6--6--6--|--------------------------------------|
--------|-6-6-6--6--6--6-6-6--6--6--6--|--------------------------------------|
--------|-8-8-8--8--8--8-8-8--8--8--8--|--------------------------------------|
--------|-8-8-8--8--8--8-8-8--8--8--8--|--------------------------------------|
--------|------------------------------|--------------------------------------|
  G1 Chorus Out

--------|-6--4--6--4--6--4--6--4--6--4-|--------------------------------------|
--------|------------------------------|--------------------------------------|
--------|------------------------------|--------------------------------------|
--------|------------------------------|--------------------------------------|
--------|------------------------------|--------------------------------------|
--------|------------------------------|--------------------------------------|
  G2 Chorus Out
Related for Feel Good Inc tab
Advertisement will be closed in 10 seconds