Song name
# A B C D E F G H I J K L M N O P Q R S T U V W X Y Z

Gorillaz - El Maana tab

Song:El Manna
Artist:Gorillaz
Tuning: Standard

This is my 1st tab so it might not be accurate but cuz it waz such a gd song i had to tab it.
Here goes!

~-bend string
pm-palm mute
/-slide
      Guitar 1
e-----12-0--10-0--8-0--7-0------|
B-------------------------------|
G-------------------------------|
D-------------------------------|
A-------------------------------|
E-------------------------------|


      Guitar 2
  (which you can just hear behind guitar 1)
e--------------------------------------------------------------------|
B--------------------------------------------------------------------|
G--------------------------------------------------------------------|
D--------------------------------------------------------------------|
A--------------------------------------------------------------------|
E---12-12-12-12-12-12-15-10--10-10-10-10-10-8-8-8-8-8-8-10-7-7-7-7-7-|


     Guitar 3
e-------------------------------------------------------------------|
B-------------------------------------------------------------------|
G-------------------------------------------------------------------|
D---7-10-10-19--7-10-10-17--7-10-10-19-7-10-10-17-------------------|
A-------------------------------------------------------------------|
E-------------------------------------------------------------------|


    Guitar 4
e-------------------------------------------------------------------|
B-------------------------------------------------------------------|
G----------------------------14-------------------------------------|
D---17-15-15-7pm7pm-10-12-13~--12-12-10-7---------------------------|
A-------------------------------------------------------------------|
E-------------------------------------------------------------------|

   Verse riff (acoustic)
e---0-0-0-0-0-0-0-0-0-0-0-0-0-0-0-0-0-0-0-0-0-0-0-0-0-0-0-0-0-0-0-0-|
B---0-0-0-0-0-0-0-0-0-0-0-0-0-0-0-0-1-1-1-1-1-1-1-1-0-0-0-0-0-0-0-0-|
G---6-6-6-6-6-6-6-6-4-4-4-4-4-4-4-4-2-2-2-2-2-2-2-2-0-0-0-0-0-0-0-0-|
D---7-7-7-7-7-7-7-7-5-5-5-5-5-5-5-5-3-3-3-3-3-3-3-3-0-0-0-0-0-0-0-0-|
A-------------------------------------------------------------------|
E-------------------------------------------------------------------|

   Chorus
  Play the 1st 2 chords 16 times but on the 3rd and 4th chord play them only 8.

e---1-1-1-1-1-1-1-1-0-0-0-0-0-0-0-0-1-1-1-1-1-1-1-1-3-3-3-3-3-3-3-3-|
B---1-1-1-1-1-1-1-1-1-1-1-1-1-1-1-1-1-1-1-1-1-1-1-1-3-3-3-3-3-3-3-3-|
G---2-2-2-2-2-2-2-2-2-2-2-2-2-2-2-2-2-2-2-2-2-2-2-2-4-4-4-4-4-4-4-4-|
D---3-3-3-3-3-3-3-3-3-3-3-3-3-3-3-3-3-3-3-3-3-3-3-3-6-6-6-6-6-6-6-6-|
A-------------------------------------------------------------------|
E-------------------------------------------------------------------|

   Back to verse riff-x2
   Then chorus.
   Then verse riff again.
   Then...

   Cello bridge
e--------------------------------------------------------------------------|
B--------------------------------------------------------------------------|
G--------------------------------------------------------------------------|
D------------------------------------------------------------------- - x10-|
A---0-7-0-7-3-10pm-10-10-2--8-4-8-9-7-5-3-1~-0-----------------------------|
E--------------------------5----------------3------------------------------|
Tap to rate this tab
 
# A B C D E F G H I J K L M N O P Q R S T U V W X Y Z