Song name
# A B C D E F G H I J K L M N O P Q R S T U V W X Y Z

Gorillaz - Every Planet We Reach Is Dead tab

its actually the song's lead.,, notice that they use bass.,,
goes like thissss........

i lost me leg like i...
E|-----------------------------|
B|-----------------------------|
G|-----------------------------|
D|-----------------------------|
A|--7-7------------------------|
E|------10-10-10-8-8-7---------|

so no lose... nothing to...
E|-----------------------------|
B|-----------------------------|
G|-----------------------------|
D|-----------------------------|
A|-----------------------------|
E|--5-7-7-0--5-7-7-7/8-7-5-----|

how're we goin to work dis out??...
E|-----------------------------|
B|-----------------------------|
g|-----------------------------|   (this part doesnt sound "perfectly"right.
D|-----------------------------|    soorryyy....)
A|--5/7-7-7-5-5-5/7------------|
E|------------------8-7-5------|

dreams arent bad....
[USE THE SAME TABS IN the PART WHERE "I LOST MY LEG"...]

But god only knows...
E|------------------------------------|
B|------------------------------------|
G|------------------------------------|
D|------------------------------------|
A|------------3-3-3--3-3--3-3-3-3/5-2-|
E|--5-5-0-3-3-------------------------|


but what are we going to do??
E|------------------------------------|
B|------------------------------------|
G|------------------------------------|
d|------------------------------------|
A|----------7-5-7---------------------|
E|--5-5-5-5---------------------------|
Tap to rate this tab
 
# A B C D E F G H I J K L M N O P Q R S T U V W X Y Z