Song name
# A B C D E F G H I J K L M N O P Q R S T U V W X Y Z

Gorillaz - November Has Come tab

Artist- The Gorillaz
Song- November has come/ track 9
Album- Demon Days

Tabbed by Alex/ Tool_fan

   Good Band that doesnt get near as much credit as they should. Heres one of the cool 
pieces that stood out-


e---------------------------------------|
b--0-12-0-----------0-12-0--------------|       Hammer on pull off is onequick
g---------------------------------------|       motion.
d-----------7-7-7----------7-7-7-7h8p7--|
a---------------------------------------|
E---------------------------------------|

e-------------------------------------------|
b---0-12-0----------0-12-0------------------|
g-------------------------------------------|
d-----------7-7-7----------7-7--7--5--5--2--|
a-------------------------------------------|
E-------------------------------------------|

e----------------------------------------|
b----------------------------------------|
g----------------------------------------|
d--2--0----------------------------------|
a--------3--5--3--5--3--5/7--3--5--------|
E----------------------------------------|

The wierd "zipping" sound is made by placing the index finger on the seventh fret of the 
string and quicky sliding up to the 19th fret and letting it go. The movement kind of 
throwing something. And also in the back ground along with the zipping you can hear the7h8p7.
Tap to rate this tab
# A B C D E F G H I J K L M N O P Q R S T U V W X Y Z