Song name
# A B C D E F G H I J K L M N O P Q R S T U V W X Y Z

Gorillaz - Left Hand Suzuki Method tab

This solo is after noodle stops singing in "english" and the piano soloo begins.
I Have the tabs for both the guitar and piano if your interested in both.

(piano)
G-G-A-B--B-C-D-E-D-B--D-C-B-A--C-B-A-G-G--G-A-B-B-C-D-E-D-B--D-C-B-A-B-A-G

D-C-B-A-----C-B-A-G--G-G-A-B-B-C-D-E-D-B--D-C-B-A-B-A-G-G
--------D-D-----------------------------------------------

(guitar)
e|---------------------------------------------------------------------|
B|---------------------------------------------------------------------|
G|---------------------------------------------------------------------|
D|--5-5-7-9--9-10-12-14-12-9-12-10-9-7--10-9-7-5-----------------------|
A|---------------------------------------------------------------------|
E|---------------------------------------------------------------------|

e|---------------------------------------------------------------------|
B|---------------------------------------------------------------------|
G|---------------------------------------------------------------------|
D|--5-5-7-9--9-10-12-14-12-9-12-10-9-7-9-7-5--5------------------------|
A|---------------------------------------------------------------------|
E|---------------------------------------------------------------------|

e|---------------------------------------------------------------------|
B|---------------------------------------------------------------------|
G|---------------------------------------------------------------------|
D|--12-10-9-7---10-9-7-5--5-5-7-9--9-10-12-14-12-9-12-10-9-7-9-7-5--5--|
A|-----------5-5-------------------------------------------------------|
E|---------------------------------------------------------------------|

e|---------------------------------------------------------------------|
B|---------------------------------------------------------------------|
G|---------------------------------------------------------------------|
D|--12-10-9-7---10-9-7-5--5-5-7-9--9-10-12-14-12-9-12-10-9-7-9-7-5--5--|
A|-----------5-5-------------------------------------------------------|
E|---------------------------------------------------------------------|
Tap to rate this tab
# A B C D E F G H I J K L M N O P Q R S T U V W X Y Z