Guitaretab - guitar tabs
Song name
# A B C D E F G H I J K L M N O P Q R S T U V W X Y Z

Gorillaz - Novermber Has Come tab

this is how u actually play the main part of the song..

figured this out my self after trying to use the fool who put up the only other tab for 
cool sounding guitar.. here it is enjoy james

E ----------------------------------|
B ----------------------------------|
G ----------------------------------|  X3
D -7--------------------------------|
A --7----5/7--5-3-5-3-5-3-5/7-3-5-3-|
E ----------------------------------|
[ Tab from: ]
E ----------------------------------  |--------|
B ----------------------------------  |--------|
G ----------------------------------X5|--------|
D ---7------------------------------  |--------|
A -7----5--3-5-3-5-3-5-3-5/7-3-5-3--  |-0------|
E ----------------------------------  |--------|
you can work out when it changes back as it is just these two parts through the rest of 

peace out and if you have any other songs you have trouble on email me at
Related for Novermber Has Come tab