Song name
# A B C D E F G H I J K L M N O P Q R S T U V W X Y Z

Gorillaz - Rock The House tab

Hi, here is my intro of Rock The House, enjoy.

|--8-7-----------5---------8-7--10--7-5--------------|
|------8----6-8-------6-8----------------------------|
|---------7---------7--------------------------------|
|----------------------------------------------------|
|----------------------------------------------------|
|----------------------------------------------------|

and afther that its:

|----------8-7-----------5---------8-7--10--7-5-------------|
|---6-8---------8----6-8-------6-8--------------------------|
|-7----------------7---------7------------------------------|
|-----------------------------------------------------------|
|-----------------------------------------------------------|
|-----------------------------------------------------------|

and then you repeat the whole thing.

Otter.
Tap to rate this tab
# A B C D E F G H I J K L M N O P Q R S T U V W X Y Z