Song name
# A B C D E F G H I J K L M N O P Q R S T U V W X Y Z

Gorillaz - Stop The Dams tab

tabbed by will

part 1
E -12----------------12---------------12----------------12-----------------|
B --------13-----------------13---------------12----------------12---------|
G ----12------12--------12--------12------12-------12-------12------12-----|
D -------------------------------------------------------------------------|
A -------------------------------------------------------------------------|
E -------------------------------------------------------------------------|


E  --12---------------12----------------13---------------13----------------|
B  ----------13----------------13---------------13---------------13--------|
G  ------14------14--------14-------14------14------14-------14------14----|
D  ------------------------------------------------------------------------|
A  ------------------------------------------------------------------------|
E  ------------------------------------------------------------------------|

E  --12--------------12---------------12-------------12--------------------|
B  ---------13--------------13---------------12--------------12------------|
G  -----12------12-------12-----12-------13-----13-------13-----13---------|
D  ------------------------------------------------------------------------|
A  ------------------------------------------------------------------------|
E  ------------------------------------------------------------------------|

E  --13-------------13---------------12--------------12--------------------|
B  ---------13--------------13--------------13---------------13------------|
G  ------14----14-------14-----14-------12------12-------12-------12-------|
D  ------------------------------------------------------------------------|
A  ------------------------------------------------------------------------|
E  ------------------------------------------------------------------------|
repeat as needed

then the chords
play with the song to get the rhythm

C   Em    Am   F
C   E     F    Em

back to part 1

trumpet plays

E  ---0---3---0---------0---3---0------------------------------------------|
B  -----------------3----------------1-------------------------------------|
G  ------------------------------------------------------------------------|
D  ------------------------------------------------------------------------|
A  ------------------------------------------------------------------------|
E  ------------------------------------------------------------------------|
Tap to rate this tab
# A B C D E F G H I J K L M N O P Q R S T U V W X Y Z