Song name
# A B C D E F G H I J K L M N O P Q R S T U V W X Y Z

Gorki - Ode An Die Freude tab

e|------------------------------------------------------------|
B|---0---0---1---3----3--1--0-----------------0---0-----------|
G|-----0---0---0---0-----------2--0---0---2-----------2---2---|
D|--------------------0-------------0---0---0---------0---0---|
A|------------------------------------------------3-----------|
E|-3------------------------------3---------------------------|

e|------------------------------------------------------------|
B|---0---0---1---3----3--1--0-----------------0---------------|
G|-----0---0---0---0-----------2--0---0---2-------2---0---0---|
D|--------------------0-------------0---0---0-----0-----------|
A|------------------------------------------------------------|
E|-3------------------------------3-------------------3---3---|

e|------------------------------------------------------------|
B|-0-----------0--------0h1-0--------0h1p0--------------------|
G|----0--2--2-----0--2---------0--2---------2--0--2-----------|
D|-------0-----------0------------0------------------0--------|
A|---------------------------------------------2--3-----------|
E|-------------3------------3------------------------2--------|

e|------------------------------------------------------------|
B|---0---0---1---3----3--1--0-----------------0---------------|
G|-----0---0---0---0-----------2--0---0---2-------2---0---0---|
D|--------------------0-------------0---0---0-----0-----------|
A|------------------------------------------------------------|
E|-3------------------------------3-------------------3---3---|

Dit speelt hij het hele liedje door, ondertussen zingt hij iets in de aard van:

Freude schoner Gotterfunken, Tochter aus Elysium
Wir betreten Feuertrunken, Himmlische dein Heiligtum
Deine Zauber binden wieder was die Mode streng geteilt
Alle Menschen weder Broder dein safter Flugel Weilt

(sorry voor de typfouten die er ongetwijfteld in staan, ik spreek namelijk Duits met
nogal een Vlaams accent, alhoewel het gelukkig nog niet zo erg is als bij de Jean-Marie) 

Peace en amuseerdudermee!

(vragen, opmerkingen: de_meester_ellen@hotmail.com)
Tap to rate this tab
 
# A B C D E F G H I J K L M N O P Q R S T U V W X Y Z