Song name
# A B C D E F G H I J K L M N O P Q R S T U V W X Y Z

Gorky Park - Bang tab

-----------------------------------------------------------|
-----------------------------------------------------------|
-----------------------------------------------------------|
----9-xxx------------------------7-------------------------|
----9-xxx-----7--7h9--------7h9--------7--5/7--9-----------|
----7-xxx--10--------7-------------10------------7---------|

-----------------------------------------------------------|
-----------------------------------------------------------|
-----------------------------------------------------------|
----9-9---------------777----------------------------------|
----9-9-----7h9-------777-----7----7h9---------------------|
----7-7--10-----7-----555--10---10-----7-------------------|

Have fun.
Someone, please post the rest of this.
Tap to rate this tab
# A B C D E F G H I J K L M N O P Q R S T U V W X Y Z