Song name
# A B C D E F G H I J K L M N O P Q R S T U V W X Y Z

Gorkys Zygotic Mynci - Gwres Prynhawn tab

Gorky's Zygotic Mynci - 'GWRES PRYNHAWN' (Track 05 from the 1994 album 'Tatay')

Hello. This is a lovely, very enjoyable to play and not difficult song. I got the lyrics from
http://www.gorkys.freeserve.co.uk/gorkys/disco/lyrics/tgwres.htm
Cheers.




INTRO:

e ----------------------------------------|
B --------7-----8--7----------------7-----|
G -----4-----4--------4----------6-----6--|  [x4]
D --5--------------------5--5/7-----------|
A ----------------------------------------|
E ----------------------------------------|
(From the 2nd time on, singing ahhh ahhh...)



VERSE 1:

C#m        B          C#m     B
Dawnsio 'mlaen i'r gwres prynhawn
        F#m          G#m     C#m      E   G#m   E   G#m
A rwy'n addo erbyn yfori byddai wedi mynd
  (B)    C#m      B          C#m      B
A rwy'n dawnsio mlaen i'r gwres yn y nos
        F#m          G#m     C#m      E   G#m   E   G#m
A rwy'n addo erbyn yfori byddai wedi mynd



INTERMEZZO:

A   A   Bm   D  [x2]       (I play A as xx7655; Bm as xxxx32; D as xx0232)

Then:   E   B   (in crescendo)



VERSE 2 (same chords as in VERSE 1, different lyrics):

A rwy'n dawnsio 'mlaen i'r gwres yn y nos
A rwy'n addo erbyn yfori byddai wedi mynd
A rwy'n dawnsio 'mlaen i'r gwres yn y dydd
A rwy'n addo erbyn yfori byddai wedi mynd



INTERMEZZO: this time the final chord is G#(?) (instead of B)



VERSE 3:
(C#) D#m       C#         D#m     C#
    Dawnsio 'mlaen i'r gwres prynhawn
        G#m          A#m     D#m      F#   A#m   F#   A#m
A rwy'n addo erbyn yfori byddai wedi mynd
  (C#)   D#m      C#         D#m      C#
A rwy'n dawnsio mlaen i'r gwres yn y nos
        G#m          A#m     D#m      F   A#m   F#..........
A rwy'n addo erbyn yfori byddai wedi mynd



OUTRO:

e --------4-----5--4----------------4--|
B -----2-----2--------2----------4-----|  [x3]
G --2--------------------2--2/4--------|
(Singing 'ahhh ahhh' from the first time)

The last (4th) time (also singing), slows down and adds at the end the final chord xxx22x:
e --------4-----5--4----------------4--x--|
B -----2-----2--------2----------4-----2--|
G --2--------------------2--2/4--------2--|
Tap to rate this tab
 
# A B C D E F G H I J K L M N O P Q R S T U V W X Y Z