Gossip - Heavy Cross tab

-------------------------------------------------------------------------------
			     HEAVY CROSS -  Gossip
-------------------------------------------------------------------------------
Tabbed by: don
Email: dhsta1@gmail.com

Tuning: standard

Intro and Verse
e|---------------------------------------------------------------------------|
B|----------------------------------------8-8---8-8--------------------------|
G|----9-9---9-9---9-9---9-9---9-9---9-9--------------------------------------|
D|---------------------------------------------------------------------------|
A|-7-7---7-7---7-7---7-7---7-7---7-7---7-7---7-7-----------------------------|
E|---------------------------------------------------------------------------|

e|---------------------------------------------------------------------------|
B|---------------------------------------------------------------------------|
G|----7-7---7-7---7-7---7-7---7-7---7-7---5-5---4-4--------------------------|
D|---------------------------------------------------------------------------|
A|-5-5---5-5---5-5---5-5---5-5---5-5---3-3---2-2-----------------------------|
E|---------------------------------------------------------------------------|

Chorus:
e|---------------------------------------------------------------------------|
B|-12-12-12-12----12-12-12-12---17-17-17-17---17-17-17-17--------------------|
G|-12-12-12-12----12-12-12-12---16-16-16-16---16-16-16-17--------------------|
D|-12-12-12-12----12-12-12-12---12-12-12-12---12-12-12-12--------------------|
A|---------------------------------------------------------------------------|
E|---------------------------------------------------------------------------|

e|----10-------------10------------------------------------------------------|
B|----10-------------10------------------------------------------------------|
G|----10-------------10------------------------------------------------------|
D|-0-0---0-0------0-0---0-0--------------------------------------------------|
A|--------3-3p0----------3-3p0-----------------------------------------------|
E|---------------------------------------------------------------------------|

Interlude:
e|------15-15-19-19--------15-15-19-19-------14-14-17-17---------------------|
B|-17-17--------------17-17-------------15-15--------------------------------|
G|---------------------------------------------------------------------------|
D|---------------------------------------------------------------------------|
A|---------------------------------------------------------------------------|
E|---------------------------------------------------------------------------|
Tap to rate this tab
 
# A B C D E F G H I J K L M N O P Q R S T U V W X Y Z