Song name
# A B C D E F G H I J K L M N O P Q R S T U V W X Y Z

Gossip - Standing In The Way Of Control tab

This is Standing in the Way of Control's singular Guitar part, I've seen a few tabs here 
and I've noticed that some are a
bit different to the actual song, they're usually other people's personal preferences, I 
think. I think this is how they play it,
but it's my first time at this so I might be completely wrong. It's in standard tuning, 
not too difficult except the verse
might be a bit tricky for beginners as it's pretty fast :P. Pretty sure it's right though, enjoy!

Intro/Chorus
e-----------------| x2, then  e-------------------------------------|
B-----------------|           B-------------------------------------|
G-5-5-5-5-5-5-5-5-|           G-5-5-5-5-5-5-5-x---------------------|
D-7-7-7-7-7-7-7-7-|           D-7-7-7-7-7-7-7-x-9-9-9-9-10-10-12-12-|
A-----------------|           A-----------------7-7-7-7--8--8-10-10-|
E-----------------|           E-------------------------------------|

Verse Intro
e--------------------------------------| x2
B--------------------------------------|
G--------------------------------------|
D--7-7-7-7-7-7-7-7-5-5-5-5-5--2/3-3----|
A----------------------------------3-3-|
E-5-5-5-5-5-5-5-5-3-3-3-3-3------------|

then when she starts singing;
e---------------------------------------------------------------------| x4
B---------------------------------------------------------------------|
G---------5---------------------5-------------------------------------|
D-7-7-7-7---7-7-7-7-7-5h7-7-7-7---7-7-7-7-7-7---5-5-5-5-5--2/3-3------|
A----------------------------------------------------------------3-3--|
E----------------------------------------------3-3-3-3-3--------------|

Chorus is the exact same as the Intro :D          x1

then back to the verse , but this time instead of the verse intro, just go straight into 
the singing part.                   x6

Chorus x1 then straight into;

Bridge/Breakdown
e------------------------------------------------| x4
B------------------------------------------------|
G----5---5---5---7---5---------------------------|
D--------------------------5---5-------5-----5---|
A-----------------------------------3-3-3/5-5-5--|
E-5-5-5-5-5-5-5-5-5-5-5/3-3-3-3-3-3--------------|

after this initial bit, you can hear it change, I think the guitar continues along the 
higher stringed parts and the bass plays
the low E and A strings, but it sounds alright if you just keep on with this structure 
for another four times.

Chorus x1

After this, go straight into the verse again, missing out the third and fourth times, 
then doing another 2 go arounds, before
ending with the chorus/intro x1, then finish on the A minor chord:

e---|
B---|
G-5-|
D-7-|
A---|
E---|

AND THAT'S IT (I THINK)!
Tap to rate this tab
# A B C D E F G H I J K L M N O P Q R S T U V W X Y Z