Song name
# A B C D E F G H I J K L M N O P Q R S T U V W X Y Z

Gossip - Yr Mangled Heart tab

correct chorus :

e[------------------------------------]
B[------------------------------------]
G[------------------------------------]  
D[------7-7-----7-7-----10---0---0---0]
A[------------------------------------]
E[--3-5-----3-5-----7/8--------1---3--]

live solo :

e[---------------------]
B[---------------------]
G[---------------------]  
D[-7x10-9---0-0-0------]
A[---------------------]
E[----------------1-1-3]
Tap to rate this tab
 
# A B C D E F G H I J K L M N O P Q R S T U V W X Y Z