Song name
# A B C D E F G H I J K L M N O P Q R S T U V W X Y Z

Gossip - Keeping You Alive tab

intro : 

e[----------------------------------------]
B[----------------------------------------]
G[----------------------------------------]
D[-5-5-5-5-5-5-5-5-5-5-3-5-3-5-0----------] 
A[----------------------------------------]
E[----------------------------------------] x4

verse :

e[----------------------------------------]
B[----------------------------------------]
G[--------------------------------9x5-----]
D[-0-0-3-5-3-5/8-8-7-8-7-10/12----12x5----] 
A[----------------------------------------]
E[----------------------------------------] x4

chorus :

e[------------------------------------------------------]
B[------------------------------------------------------]
G[------------------------------------------------------]
D[-9-9-9---9-9---9-9-9---9-9---5-5-----------5-5-557-5-0] 
A[121212--1212--121212--1212---7-7-5-5-7-7---7-7--------]
E[------------------------------------------------------] x4

Enjoy !
Tap to rate this tab
# A B C D E F G H I J K L M N O P Q R S T U V W X Y Z