Song name
# A B C D E F G H I J K L M N O P Q R S T U V W X Y Z

Gothminister - Monsters tab

Verses:

E|-----------------------------------------------------------|
B|-----------------------------------------------------------|
G|-----------------------------------------------------------|
D|-----------------------------------------------------------|
A|------8--7--3-5-----8--7--3-5-----8--7--3------------------|
D|0-0-0-----------0-0-----------0-0---------5-5-5-5-7-3-3-3-3|


Chorus:

E|-------------------------------|-------------------------------|
B|-------------------------------|-------------------------------|
G|-------------------------------|-------------------------------|
D|-------------------------------|-------------------------------|
A|7-------3----------------------|7-------3----------------------|
D|7-------3-------0-0-0-10--9--5-|7-------3-------0-0-0-10--9--5-|
  Let Ring-------|                Let Ring-------|  


E|-----------------------------------------|-------------------------------|
B|-----------------------------------------|-------------------------------|
G|-----------------------------------------|-------------------------------|
D|-----------------------------------------|-------------------------------|
A|7-------12-----10/9----------------------|7-------3----------------------|
D|7-------12-----10/9-------0-0-0-10--9--5-|7-------3-------0-0-0-10--9--5-|
  Let Ring-----------|                      Let Ring-------|
Tap to rate this tab
 
# A B C D E F G H I J K L M N O P Q R S T U V W X Y Z